Preciso entender

Isadora Pompeo

Composición de: Isadora Pompeo
tono: Ab (con acordes en la forma de G ) Capotraste en 1ª casa
[Intro] G  D/F#  C

(Riff)

E|---16-15--------16-15---------------------------|
B|---------16-13--------16-13-----13-13-14p13-----|
G|-----------------------------15-----------------|
D|------------------------------------------------|
A|------------------------------------------------|
E|------------------------------------------------|

E|------------16-15-------16-15-----------------------|
B|-------9----------16-13-------16-13-----13-13-14p13-|
G|--15---------------------------------15-------------|
D|----------------------------------------------------|
A|----------------------------------------------------|
E|----------------------------------------------------|

[Primeira parte]

     G                D/F#           C
Só quero entender o que devo fazer, Jesus
  G              D                  C
Preciso entender o que devo fazer, Jesus 

 G                          D
Tenho caminhado em tua direção
                               Em7
Buscando saber o que fazer ou não 
                                         C
Me perco em meus passos e não consigo me achar
                            G
Então eu choro e começo a clamar
                                  D/F#
Eu não quero que a minha vontade vença
                                  Em7
Mas quero que somente a tua prevaleça
                                    C
Mas eu preciso caminhar para algum lugar 
Me diz Deus aonde eu devo estar

     G                D              C
Só quero entender o que devo fazer, Jesus
  G              D                  C
Preciso entender o que devo fazer, Jesus

 G
Meu pensamento fala tanto
        D/F#
E a minha voz está no canto
         C
Pois eu canto a ti
     G
Meu sentimento não entende 
          D
Mas minha alma compreende  
         C
Pois pertenço a ti 
    G
As lutas vem chegando tentando me afogar 
D
As incertezas vem tentado me derrubar 
       Em7         C
O que fazer? Como vencer? Eu não consigo entender 

     G                D/F#           C
Só quero entender o que devo fazer, Jesus
    G            D                  C
Preciso entender o que devo fazer, Jesus
Página 1 / 1

Letras y titulo
Acordes y artista

restablecer los ajustes
OK