Salapi Intro

Itchyworms

tono: D
Salapi                          


E|---------5-------------|
B|--5-5--7---7--5--7-----|
G|--------------------6--|    (3x)
D|-----------------------|
A|-----------------------|
E|-----------------------|

E|-----------------------------------------|
B|-----------------------------------------|
G|-5-5-5-5---------4-4-4-4--5-5-5-5--7-----|
D|---------7-7-7-7-------------------------|
A|-----------------------------------------|
E|-----------------------------------------|


mer ule gmawa nto…
para s mga kklase q s st. Claire.. :)
kht mlakas ang topak nyo
mhal q kyo!
Página 1 / 1

Letras y titulo
Acordes y artista

restablecer los ajustes
OK