London Skies

Jamie Cullum

Composición de: Guy Chambers / Jamie Cullum
tono: B
Intro: B (riff 1) F# G#m F# G# (2x)

 B (riff 1)
Paint a picture
                                     F# G#m F# G#m
Clear cut and pale on a cold winters day
  B (riff 1)                                               F# G#m F# G#m
Shapes and cool light wonder the streets like an army of strays
           E/B
On a cold winters day

 C#          B        C#   B      
Will you let me romanticize
C#          B             G#m   F#
The beauty in our London skies
C#            B                C#   B      
You know the sunlight always shines
C#          B                G#m   F# (riff 2)
Behind the clouds of London skies

 B (riff 1)                                       F# G#m F# G#m
Patient moments chill to the bone under infinite grey
 B (riff 1)                                        F# G#m F# G#m
Vision hindered mist settling low like a ghostly ballet
           E/B
On a cold winter's day

C#          B        C#   B      
Will you let me romanticize
C#          B             G#m   F#
The beauty in our London skies
C#            B                C#   B      
You know the sunlight always shines
C#          B                G#m   F# (riff 2)
Behind the clouds of London skies

 G#                        G                       F#
Nothing is certain except everything you know can change
 G#                  G
Worship the sun but now
                     F#
Can you fall for the rain

C#          B        C#   B      
Will you let me romanticize
C#          B             G#m   F#
The beauty in our London skies
C#            B                C#   B      
You know the sunlight always shines
C#          B                G#m   F# (riff 2)
Behind the clouds of London skies

B (riff 1) F# G#m F# G#m F# G#m F# G#m


Riff 1:

E|--8-9--8----8-9-8---9-8---9-8----------------------------------------|
A|---------9--------9-----9-----9--11--11h13h11--9--11--11-9-----------|
D|---------------------------------------------------------------------|
G|---------------------------------------------------------------------|
B|---------------------------------------------------------------------|
e|---------------------------------------------------------------------|

Riff 2:

E|--4-6-------------|
A|------4-6/8-9-11--|
D|------------------|
G|------------------|
B|------------------|
e|------------------|
Página 1 / 1

Letras y titulo
Acordes y artista

restablecer los ajustes
OK