Wait Until Tomorrow

Jimi Hendrix

Composição de: Jimi Hendrix
tono: A
Intro :
E|-----------------------------------------------------
B|------9h10---9h10p9----------------------------------
G|------9------9---------------------9-----------------
D|------9h11---9h11p9----------------9-----------------
A|----------------------11-11---9h11-------------------
E|--------------------------------------0-0------------

E|-----------------------------------------------------
B|----7h8---7h8p7--------------------------------------
G|----7-----7----------------7-------------------------
D|----7h9---7h9p7------------7-------------------------
A|-----------------9-9---7h9---------------------------
E|------------------------------0-0--------------------

E|-----------------------------------------------------
B|------9h10---9h10p9----------------------------------
G|------9------9---------------------9-----------------
D|------9h11---9h11p9----------------9-----------------
A|----------------------11-11---9h11-------------------
E|--------------------------------------0-0------------

E|-----------------------------------------------------
B|----7h8---7h8p7--------------------------------------
G|----7-----7----------------7-------------------------
D|----7h9---7h9p7------------7-------------------------
A|-----------------9-9---7h9---------------------------
E|------------------------------0-0--------------------

Verso :
E|------5--------5--5-----------------10--9--7-------------------
B|------5-----x--5--5------------7----7---7--7--10--7------------
G|------6-----x--6--6------------7----7---7--7--7---7------------
D|------7-----x------------------7----7---7--7--7---7------------
A|---0------0----------0-----------------------------------------
E|---------------------------0-----------------------------------

E|----------------------------------------------------------------
B|---------------10-----------10-----------10-------10-------10---
G|-------9-------9------------9-------9--------9--------9---------
D|-------11p9h11------11p9h11-----11--9h11-----9h11-----9h11------
A|---0------------------------------------------------------------
E|----------------------------------------------------------------

E|---------------------------------------------------------
B|---------10-------10-------------------------------------
G|----9--------9-------------------------------------------
D|----9h11-----9h11----------------------------------------
A|---------------------------------------------------------
E|---------------------------------------------------------
Página 1 / 1

Letras y titulo
Acordes y artista

restablecer los ajustes
OK