Mata Minha Sede

João Neto e Frederico

Composição: Diego Damasceno
Tom: A
(intro) B E G#m F# B

E|-7-6-7-6-9-6-7-6-7--7-6------|
B|------------------------9-7--|
G|-----------------------------|
D|-----------------------------|
A|-----------------------------|
E|-----------------------------|

B
O tempo passa e onde está você
G#m
Me pergunto tentando entender
E
Só não passa em meu coração
F#
Essa saudade que me invade

B                              G#m
Tudo que faço me faz lembrar você
                                      E
Em todos os lugares só estive pra te ver
    C#m                    B             F#
Não dá pra esconder eu só sei te querer

B             E           G#m
Seu olhar marcou meu coração
            F#          E
Acendeu de vez essa paixão
E agora

(refrão 2x)
B
Mata minha sede
        E                          G#m
Do seu beijo, do seu toque , seu carinho
          F#
To aqui sozinho te esperando

B                    E
Mata minha sede de amor
                     G#m
E vem me dar o seu calor
            F#
Eu sei que tô te amando

(solo) B E G#m F# B B E G#m F#
E|---------------------------------------------------|
B|---------------------------------------------------|
G|-3s10-10-10-9-10s12-10-9-9-9-8-9-8-9-8-------------|
D|---------------------------------------10-9-7h8p7--|
A|---------------------------------------------------|
E|---------------------------------------------------|

E|-7-6-7-6-9-6-7-6-7--7-6------|
B|------------------------9-7--|
G|-----------------------------|
D|-----------------------------|
A|-----------------------------|
E|-----------------------------|

(repete tudo)
(refrão 2x)

(solo) B E G#m         F#
           Eu sei que tô te amando

B E G#m F# B

E|-7-6-7-6-9-6-7-6-7--7-6----------------|
B|------------------------9-7------------|
G|-----------------------------------6-4-|
D|-----------------------------4-4h6-----|
A|---------------------------------------|
E|---------------------------------------|
Página 1 / 1

Letras y titulo
Acordes y artista

restablecer los ajustes
OK