Overdriver

Joe Satriani

Composición de: Joe Satriani
tono: G
(intro 8x)

E|-----------------------------------|
B|-----------------------------------|
G|--2---2------2----2----------------| 
D|-----------------------------------|
A|----0---0--0---0----/3-3-3-0-------|
E|-----------------------------------|

Temolo Bit (mais baixo fazendo o padrão acima)

E|----------------------|
B|----------------------|
G|-2--0--5--4--2--0-----|
D|----------------------|
A|----------------------|
E|----------------------|

E|----------------------|
B|----------------------|
G|-2--0--2--6--2--0-----|
D|----------------------|
A|----------------------|
E|----------------------|

E|----------------------|
B|----------------------|
G|--2--0--9--2--0-------|
D|----------------------|
A|----------------------|
E|----------------------|

E|----------------------|
B|-2--0--2--11--2--0----|
G|----------------------|
D|----------------------|
A|----------------------|
E|----------------------|

(principal)
E|--------------------------|----------------------------------10----|
B|-----------8--/12------10-|---12^13-12^13v12p10--10--12--13--------|
G|--------9----------12-----|----------------------------------------|
D|-----9--------------------|----------------------------------------|
A|--7-----------------------|----------------------------------------|
E|--------------------------|----------------------------------------|

E|---------10-|-10h12--12---12h13p13p10--------------------|
B|-12--13-----|--------------------------13--10--10----10--|
G|------------|-------------------------------------12-----|
D|------------|--------------------------------------------|
A|------------|--------------------------------------------|
E|------------|--------------------------------------------|

E|---------15--17-|--------|-15--17-|--20--20^22v20^22v20^22^20v22^20p17----------17----|
B|-15--17---------|-15--17-|--------|-------------------------------------20--17--------|
G|----------------|--------|--------|---------------------------------------------------|
D|----------------|--------|--------|---------------------------------------------------|
A|----------------|--------|--------|---------------------------------------------------|
E|----------------|--------|--------|---------------------------------------------------|

E|-^22--20-|-20-17-15----------17-15------------------------------|
B|---------|----------17-15---------17-15-------------------------|
G|---------|----------------17------------17-14-------------------|
D|---------|------------------------------------17-14-13----------|
A|---------|---------------------------------------------15-12----|
E|---------|------------------------------------------------------|

E|------------------------------------------------|
B|------------------------------------------------|
G|------------------------------------------------|
D|----2-----1-------0--------5--5--5--5--5--5-----| (4x)
A|-0-----0-----0-------0--3--3--3--3--3--3--3-----|
E|------------------------------------------------|

E|-----------------------------------------------------------------------|
B|-----------------------------------------------------------------------|
G|-7/9--7----------------------------7/9--7---------------------5/7--7---|
D|-----------10--9--7------7--------------------10--9--7-----7-----------|
A|---------------------10-----7/5--5---------------------10--------------|
E|-----------------------------------------------------------------------|

vai uma vez através seguida de uma florescente runthen este bit Melody novamente butdoubled uma oitava acima.

E|--------------------------------------------------------------|
B|--------------------------------------------------------------|
G|-7/9--7-------------------------------------------------------|
D|-----------10--9--7------7------------------------------------|
A|---------------------10-----7/5--5-----0--3h0--5h0--3---------|
E|-------------------------------------------------------5~-----|

E|---|---|--------------------|
B|---|---|--------------------|
G|---|---|---/14--12--5/7--9--|
D|---|---|--------------------|
A|---|-7-|--------------------|
E|-5-|---|--------------------|

E|--------------------------------------------------|
B|--------------------------------------------------|
G|--------------------------------------------------|
D|--------------------------------------------------|
A|----2-----1-------0--------5--5--5--5--5--5-------|
E|-0-----0-----0-------0--3--3--3--3--3--3--3-------|
Página 1 / 1

Letras y titulo
Acordes y artista

restablecer los ajustes
OK