La Viajerita

Jorge Cafrune

Composición de: Atahualpa Yupanqui
tono: Am
E|--8-*-8--7-5-4-5-0-----0-|
B|-10-*-10-8-6-5-6-0----1--|
G|---------------------0---|
D|--------------------2----|
A|-------------------3-----|
E|-------------------------|

E|-0-1s5-4-5-0-----------0-|
B|-0-2s6-5-6-0-----1---0-1-|
G|----------------0---1--2-|
D|---------------2---0---2-|
A|--------------3---2----0-|
E|-----------------------*-|

E|--8-*-8--7-5-4-5-0-----0-|
B|-10-*-10-8-6-5-6-0----1--|
G|---------------------0---|
D|--------------------2----|
A|-------------------3-----|
E|-------------------------|

E|-0-1s5-4-5-0---------------|
B|-0-2s6-5-6-0-----1---0---1-|
G|----------------0---1---2--|
D|---------------2---0---2---|
A|--------------3---2---0----|
E|---------------------------|

E|----1------------0-|
B|---3-----------0-1-|
G|--2-----------1--2-|
D|-0-----------0---2-|
A|------0h2h3-2----0-|
E|-----------------*-|


Am 
Desde los cerros,
Viene esta zambita,
F                C 
Por eso la llamo yo,
        E7          Am  C7 
La viajerita, palomita,
F                C 
Por eso la llamo yo,
        E7          Am 
La viajerita, palomita.

Sendas de arena,
Talco florido,
Y un corazón que pena,
Por un olvido, palomita,
Y un corazón que pena,
Por un olvido, palomita.

  G7        C     G7         C 
¡ Ay viajerita ¡, el alba asoma,
F                  C 
Trayendo de los cerros,
           E7          Am 
Frescor y aroma, palomita,
Trayendo de los cerros,
Frescor y aroma, palomita.

Yo soy de arriba,
Soy del Cochuna,
Ranchito sobre el río,
Soles y luna, palomita,
Ranchito sobre el río,
Soles y luna, palomita.

Hasta Alpachiri, voy los domingos,
Y por la noche al cerro,
Vuelvo solito, palomita,
Y por la noche al cerro,
Vuelvo solito, palomita.

¡ Ay viajerita ¡, el alba asoma,
Trayendo de los cerros,
Frescor y aroma, palomita,
Trayendo de los cerros,
Frescor y aroma, palomita.
Página 1 / 1

Letras y titulo
Acordes y artista

restablecer los ajustes
OK