Clichê

Jorge & Mateus

Composición de: Gabriel Agra
tono: A
Intro: A E F# D A E
E|----------------------|
B|-3/6-6-3-3------------|
G|-----------5-5-3-3/5--|
D|----------------------| (3x)
A|----------------------|
E|----------------------|

A               E
Criei canções e melodias pra te conquistar,
F#m                               D
Em cada verso poesia, pra me declarar.
F#m                     B9
Mas só palavras não vão traduzir
D                              Dm
O que é te olhar nos olhos e te ver sorrir.

A                   E
E se eu parecer um bobo você pode rir,
F#m                     D
É que esse seu jeito manhoso me deixou assim,
F#m                  B9
Completamente louco por você,
D                          Dm       E
Fazendo minhas rimas só pra te dizer. ie-eê

Refrão:
A
Você é o primeiro pensamento do meu dia,
E
Se eu não te vejo quase morro de agonia.
F#m                                       D
Sou dependente desse amor, o seu beijo vicia,
Eu quero todo dia!

A
A noite cai, o meu sonho é você,
E
Dizer te amo já tá virando clichê.
F#m                              D
Mas eu tô repetindo pra você saber,
Que eu adoro amar você!

           A                   E   F#m             D
E|-------------------------------------------------------|
B|-3/6-6-3-3-------------3/6-6-3-3---------------3-4-4/6-|
G|-----------5-5-3-3/5-------------5-5-3-3/5---5---------|
D|-------------------------------------------------------|
A|-------------------------------------------------------|
E|-------------------------------------------------------|

A                  E
E se eu parecer um bobo você pode rir,
F#m                     D
É que esse seu jeito manhoso me deixou assim,
F#m                  B9
Completamente louco por você,
D                          Dm       E
Fazendo minhas rimas só pra te dizer. ie-eê

Refrão:
A
Você é o primeiro pensamento do meu dia,
E
Se eu não te vejo quase morro de agonia.
F#m                                   D
Sou dependente desse amor, o seu beijo vicia,
Eu eu quero todo dia!

A
A noite cai, e o meu sonho é você,
E
Dizer te amo já tá virando clichê.
F#m                          D
Mas eu tô repetindo pra você saber,
Que eu adoro amar você!

(Repete Refrão 1x)

Passagem: ( A E D A )

                                 E
Você é o primeiro pensamento do meu dia,
F#m                                   D
Sou dependente desse amor, o seu beijo vicia,
Eu eu quero todo dia!

A
A noite cai, e o meu sonho é você,
E
Dizer te amo já tá virando clichê.
F#m                          D
Mas eu tô repetindo pra você saber,
Que eu adoro amar você!

E|--------------------|
B|-3/6-6-3-3----------|
G|-----------5-5-3-3--|
D|--------------------|
A|--------------------|
Página 1 / 1

Letras y titulo
Acordes y artista

restablecer los ajustes
OK