Instantes

Jorge & Mateus

Composición de: Flavinho Tinto / Douglas Mello / Elcio Di Carvalho / Junior Pepato / Nando Marx
tono: B
[Intro] C#m  E  B  F#

E|----------------------------------------------------|
B|------5-4h5p4\2---------5-5-5--5-5--5/7--5--4--4----|
G|-----------------4-4/6--6-6-6--6-6--6/8--6--4--4----|
D|--4/6-----------------------------------------------|
A|----------------------------------------------------|
E|----------------------------------------------------|

E|----------------------------------------------------|
B|---------7-7-7-7-7--7-7------5-4h5p4\2--------------|
G|-----4-6/8-8-8-8-8--6-6----------------4------------|
D|-4/6---------------------4/6------------------------|
A|----------------------------------------------------|
E|----------------------------------------------------|

[Primeira Parte]

 E                   
Já nem sei onde começa eu
                      B
E nem onde termina você
 E                     
Mas com o brilho desse seu sorriso
                          B
De olhos fechados também dá pra ver

[Pré-Refrão]

C#m                        E
 Se joga seu cabelo pro lado direito
               B
Tá querendo carinho
          C#m                      E
E se o abraço demorar mais um pouquinho
      B
Aí o papo é íntimo

[Refrão]

   C#m             
Palavras viram gestos
             E
As mãos já sabem o caminho
   B
A cama perde os hemisférios
         F#
Não tem lado preferido
     C#m
E a respiração vai dizendo
     E
Que foi bem melhor do que antes
     B
Que hoje perdeu pra amanhã
                F#
E amanhã temos outra chance

   C#m             
Palavras viram gestos
            E
As mãos já sabem o caminho
   B
A cama perde os hemisférios
         F#
Não tem lado preferido
     C#m
E a respiração vai dizendo
     E
Que foi bem melhor do que antes
     B
Que hoje perdeu pra amanhã
                F#
E amanhã temos outra chance

    C#m                 E
De deixar de ser instantes
    B     F#
Instantes

[Pré-Refrão]

C#m                        E
 Se joga seu cabelo pro lado direito
               B
Tá querendo carinho
          C#m                      E
E se o abraço demorar mais um pouquinho
      B
Aí o papo é íntimo

[Refrão]

   C#m             
Palavras viram gestos
             E
As mãos já sabem o caminho
   B
A cama perde os hemisférios
         F#
Não tem lado preferido
     C#m
E a respiração vai dizendo
     E
Que foi bem melhor do que antes
     B
Que hoje perdeu pra amanhã
                F#
E amanhã temos outra chance

   C#m             
Palavras viram gestos
             E
As mãos já sabem o caminho
   B
A cama perde os hemisférios
         F#
Não tem lado preferido
     C#m
E a respiração vai dizendo
     E
Que foi bem melhor do que antes
     B
Que hoje perdeu pra amanhã
                F#
E amanhã temos outra chance

    C#m                 E
De deixar de ser instantes
    B     F#
Instantes

[Final] C#m  E
Página 1 / 1

Letras y titulo
Acordes y artista

restablecer los ajustes
OK