420

Kamikazee

tono: A
(intro)

(guitar I)
|--------------------------------------------------------------|
|--------------------------------------------------------------|
|-------------99--------------------------99-------------------|
|-99--66--77--99--------------99--66--77--99-------------------|4x
|-77--77--77--77--------------77--77--77--77-------------------|
|--------------------------------------------------------------|

(bass)
|-----------88-99--------88-99-------88-99-------8-------------|
|---------99----------99-----------99---------99---------------|
|-19/--77----------77-----------77---------77------------------|
|--------------------------------------------------------------|

(guitar II)
0:05
|---------------------------------------------------000000000--|
|---------------------------------------------------000000000--|
|------------------------------------999999999999999999999999--|
|------------------999999999999999999999999999999999999999999--|
|------------------777777777777777777777777777777777777777777--|
|--------------------------------------------------------------|
                   ******************
(guitar I&II)
|------------------------------------------------------------------------|
|------------------------------------------------------------------------|
|--9999999999999999-6666666666666666-8888888888888888-666666666666666666-|
|--9999999999999999-7777777777777777-9999999999999999-777777777777777777-|
|--7777777777777777-7777777777777777-9999999999999999-777777777777777777-|
|-------------------5555555555555555-7777777777777777-555555555555555555-|

(guitar III)(synth)
|--------------------------------------------------------|
|--9---10-9-12--9---10-9-12--9---10-9-12--9---10-9-12----|
|-9---9--------9--9---------9---9--------9---9-----------|
|--------------------------------------------------------|
|--------------------------------------------------------|
|--------------------------------------------------------|

|-------------12--------------------12-------------------------------------|
|---9--10-9-12--12-10-9----9-10-9-12--12-10-9---9-12-9-12--10-9---10-9~----|
|-9----------------------9---------------------9---------------------------|
|--------------------------------------------------------------------------|
|--------------------------------------------------------------------------|
|--------------------------------------------------------------------------|

(verse)
420 na naman...            nanjan ka naman,,,
|----------------------------------------------|----------------------|
|--------------------------9-----55----44------|--9-----55----44------|
|--------------66----------9-----66----44-66---|--9-----66----44-66---|
|--------------77----------9-----66----66-77---|--9-----66----66-77---|2X
|--------------77----------7-----44----66-77---|--7-----44----66-77---|
|--------------55----------------------44-55---|--------------44-55---|

(refrain)
|------------------------------------|
|------------------------------------|
|-999999999999999-6666666666666666---|
|-999999999999999-7777777777777777---|2x
|-777777777777777-7777777777777777---|
|-----------------5555555555555555---|

|------------------------------|
|------------------------------|
|------------------------------|
|------------------------------|
|-99999999-7-------------------|
|-99999999-7-------------------|
|-77777777-5-------------------|
  ******
(chorus)
(guitar I)
|---------------------------------------------------------------------|
|---------------------------------------------------------------------|
|-9999999999999999-666666666666666-66666666-44444444-6666666666666666-|
|-9999999999999999-777777777777777-66666666-44444444-7777777777777777-|
|-7777777777777777-777777777777777-44444444-22222222-7777777777777777-|
|------------------555555555555555-------------------5555555555555555-|

|---12-11--------9-----------12-11--------9----------12-11--------9------|
|-9-------9-12-9---12-9----9-------9-12-9---12-9---9-------9-12-9---12-9-|
|------------------------------------------------------------------------|
|------------------------------------------------------------------------|3x
|------------------------------------------------------------------------|
|------------------------------------------------------------------------|
(guitar II)
|---------------------------------------------------------------------|
|---------------------------------------------------------------------|
|-9999999999999999-666666666666666-66666666-44444444-6666666666666666-|
|-9999999999999999-777777777777777-66666666-44444444-7777777777777777-|2x
|-7777777777777777-777777777777777-44444444-22222222-7777777777777777-|
|------------------555555555555555-------------------5555555555555555-|

(guitar I)
|--------------------------------------------------------------|
|--------------------------------------------------------------|
|-------------99--------------------------99-------------------|
|-99--66--77--99--------------99--66--77--99-------------------|
|-77--77--77--77--------------77--77--77--77-------------------|
|--------------------------------------------------------------|

(verse/chorus)
(do intro)
(mmm sarap}
|---------------|
|---------------|
|-99999999999---|
|-99999999999---|
|-77777777777---|
|---------------|

|-------------------------------------|
|-------------------------------------|
|---------6-6-6-6-------------7-----9-|
|-7-7-7-7-6-6-6-6-4-4-4-4-777-7-999-9-|4x
|-7-7-7-7-4-4-4-4-4-4-4-4-555-5-777-7-|
|-5-5-5-5---------2-2-2-2-------------|
                          ***   ***
then (guitar I) A  C#m D  E
(do refrain to chorus)
Página 1 / 1

Letras y titulo
Acordes y artista

restablecer los ajustes
OK