Chicksilog

Kamikazee

(intro)
g-|---------------|----------------|
d-|---------------|----------------|
a-|777----4-44----|777-------------|
e-|---5-55----7-77|---5-55-7-777777|

then
g-|---------------||--------------------------------|
d-|---------------||--------------------------------|
a-|777----4-44----||777-----------------------------|
e-|---5-55----7-77||---5-55-7-----7-----7--7--7--7--|


(verse) (magdamag nag-aabang)
g-|-----------|
D-|-----------| 4x mga tsong
a-|777---444--|
e-|---------55|

(repeat intro) 2x
(repeat verse)

(refrain) (alas dos nung linggo)
g-|------------------------------|
D-|------------------------------| 2x mga tsong
a-|---------------444444-777777--|
e-|555555-777777-----------------|

  (nanabik habang hinahanap ka)
G-|------------------------|    |------|
D-|------------------------| 3x |------|
A-|------------------------|    |------|
E-|5-5-5--9-99-7-77--------|    |7-7-7-|
(chorus)
g-|---------------|----------------|
D-|---------------|----------------| 4x pwamiz!
a-|777----4-44----|777-------------|
e-|---5-55----7-77|---5-55-7-777777|

(bridge)
g-|--------------------------------------------------|
D-|--------------------------------------------------| 2x mwah!!
a-|7-7777777777-4-4444444444-2-2222222222------------|
e-|---------------------------------------55555555555|

g-|---------------------------------|
D-|---------------------------------| 2x miz u!
a-|---------------------------------|
e-|5-5555-7-7777(pause)5555-5-7-7777|

g-|------------------------------------------|
d-|------------------------------------------|
a-|-------444-777-------444-----------444-777|
e-|777-555-------777-555---444-777-555-------|

g-|------|
D-|------| 2x luv u!
a-|------|
e-|55--77|

(repeat verse)
(repeat refrain)
(repeat chorus)
Página 1 / 1

Letras y titulo
Acordes y artista

restablecer los ajustes
OK