Komiks Solo

Kamikazee

tono: Bb
i would like 2 dedicate this song 2 all my besfwend diyan sa flomlok sa mga taga yungco 
kailan pa kau ako may maka band mates?

RYAN RIEL "AR-AR"

STANDARD:

E|----------------------------------------------|
B|----------------------------------------------|de ko alam kung ilang
G|-------7p6-------7p6--------------------------|ulit i2ng balikan
D|-----5----7-7--5------------------------------|pakingan nyo na lang pow
A|----------------------------------------------|
E|----------------------------------------------|        =)

lead 1: ung guitara lang xia lang mag isa

E|-----------------------------------------------------|
B|-----------------------------------------------------|
G|----77-77-7777-8-7-5555------------------------------|
D|----77-77-7777-8-7-5555------------------------------|
A|----55-55-5555-6-5-3333------------------------------|
E|-----------------------------------------------------|

i2 lang po un ahehehe

paki rate na lang poh

kung mali i2 e tama nyo na lang =)

kung may mali e text lang kow ahehe

09216876471

kung may suggestion pow kau text nyo lang ako or email me

*
Página 1 / 1

Letras y titulo
Acordes y artista

restablecer los ajustes
OK