Belexes

Kansas

Composição: Kerry Livgren
Intro:
G|-------------------------|
D|-----------------5--3----|
A|--5--3-----------------5-|
E|--------5--3--1----------| x2

Primeira parte:
G|----------------------------|
D|----------------------------|
A|--5--5--5--5--5--5-------3--|
E|--------------------3h5-----| x2

G|-------------------------------------------------------------------------------|
D|-------------------------------------------------------------------------------|
A|--5--5--5--5--5--5-------3--5--5--5--5--5--5--5--6--6--5--5--3--3--3--3--3--3--|
E|--------------------3h5--------------------------------------------------------|

G|--------------------------------------------------------------------------------|
D|--------------------------------------------------------------------------------|
A|-------1--3--3--3--3--3--3-------1--3/5--5--5--5--5--5--------------------------|
E|--1h3-----------------------1h3-------------------------0--0--1--1--2--2--3--3--|

G|----------------------------|
D|----------------------------|
A|--5--5--5--5--5--5-------3--|
E|--------------------3h5-----| x2

G|-------------------------------------------------------------------------------|
D|-------------------------------------------------------------------------------|
A|--5--5--5--5--5--5-------3--5--5--5--5--5--5--5--6--6--5--5--3--3--3--3--3--3--|
E|--------------------3h5--------------------------------------------------------|

G|--------------------------------------------------------------------------------|
D|--------------------------------------------------------------------------------|
A|-------1--3--3--3--3--3--3-------1--3/5--5--5--5--5--5--------------------------|
E|--1h3-----------------------1h3-------------------------0--0--1--1--2--2--3--3--|

Violino e teclado:
G|------------------------8--8--8--------------------------------------------------------|
D|---------------------------------8--8--8-----------------------------------------------|
A|--5----------5----------------------------6--6--6-----------5--5--5--5--5--5--3--3-----|
E|---------------------------------------------------6--6--6-----------------------------| x2

Segunda parte com vocal:
G|-------------------------------------------------------------------------------------------------|
D|-------------------------------------------------------------------------------------------------|
A|--5--5--5--5--5--5--3--3--5--5--5--5--5--5--------------------------3--3--5--5--5--5--5--5--3--3-|
E|--------------------------------------------1--1--3--3--3--3--3--3-------------------------------| x4

Terceira parte:
G|---------------------------------|-----------------------------------------|
D|---------------------------------|-----------------------------------------|
A|---------------------------------|-5--5---3--5--5---3--5--5---3--5--5---5--|
E|-3-3-3-3-3-3-3-3-3-3-3-3-3-3-3-3-|-------5---------5---------5-------------|

G|---------------------------------|---------------------------------|
D|---------------------------------|---------------------------------|
A|---------------------------------|-5--5---3--5--5---3--5--5---3--5-|
E|-3-3-3-3-3-3-3-3-3-3-3-3-3-3-3-3-|-------5---------5---------5-----|

Quarta parte:
G|-------------------------------------------------------------------------------------------------|
D|-------------------------------------------------------------------------------------------------|
A|--5--5--5--5--5--5--3--3--5--5--5--5--5--5--------------------------3--3--5--5--5--5--5--5--3--3-|
E|--------------------------------------------1--1--3--3--3--3--3--3-------------------------------|

G|-------------------------------------------------------------------------------------------------|
D|-------------------------------------------------------------------------------------------------|
A|--5--5--5--5--5--5--3--3--5--5--5--5--5--5--------------------------3--3-------------------------|
E|--------------------------------------------1--1--3--3--3--3--3--3--------0--0--1--1--2--2--3--3-| x2

Terceira parte:
G|---------------------------------|-----------------------------------------|
D|---------------------------------|-----------------------------------------|
A|---------------------------------|-5--5---3--5--5---3--5--5---3--5--5---5--|
E|-3-3-3-3-3-3-3-3-3-3-3-3-3-3-3-3-|-------5---------5---------5-------------|

Ponte:
G|---------------------------------|-----------------------------------|
D|---------------------------------|-----------5-3---------------5-3---|
A|---------------------------------|-5-3-----------5---5-3-----------5-|
E|-3-3-3-3-3-3-3-3-3-3-3-3-3-3-3-3-|-----5-3-1-------------5-3-1-------|

Primeira parte:
G|----------------------------|
D|----------------------------|
A|--5--5--5--5--5--5-------3--|
E|--------------------3h5-----| x2

G|-------------------------------------------------------------------------------|
D|-------------------------------------------------------------------------------|
A|--5--5--5--5--5--5-------3--5--5--5--5--5--5--5--6--6--5--5--3--3--3--3--3--3--|
E|--------------------3h5--------------------------------------------------------|

G|--------------------------------------------------------------------------------|
D|--------------------------------------------------------------------------------|
A|-------1--3--3--3--3--3--3-------1--3/5--5--5--5--5--5--------------------------|
E|--1h3-----------------------1h3-------------------------0--0--1--1--2--2--3--3--|

G|----------------------------|
D|----------------------------|
A|--5--5--5--5--5--5-------3--|
E|--------------------3h5-----| x2

G|-------------------------------------------------------------------------------|
D|-------------------------------------------------------------------------------|
A|--5--5--5--5--5--5-------3--5--5--5--5--5--5--5--6--6--5--5--3--3--3--3--3--3--|
E|--------------------3h5--------------------------------------------------------|

G|--------------------------------------------------------------------------------|
D|--------------------------------------------------------------------------------|
A|-------1--3--3--3--3--3--3-------1--3/5--5--5--5--5--5--------------------------|
E|--1h3-----------------------1h3-------------------------0--0--1--1--2--2--3--3--|

Violino e teclado:
G|------------------------8--8--8--------------------------------------------------------|
D|---------------------------------8--8--8-----------------------------------------------|
A|--5----------5----------------------------6--6--6-----------5--5--5--5--5--5--3--3-----|
E|---------------------------------------------------6--6--6-----------------------------| x2

Segunda parte com vocal:
G|-------------------------------------------------------------------------------------------------|
D|-------------------------------------------------------------------------------------------------|
A|--5--5--5--5--5--5--3--3--5--5--5--5--5--5--------------------------3--3--5--5--5--5--5--5--3--3-|
E|--------------------------------------------1--1--3--3--3--3--3--3-------------------------------| x4

Terceira parte:
G|---------------------------------|-----------------------------------------|
D|---------------------------------|-----------------------------------------|
A|---------------------------------|-5--5---3--5--5---3--5--5---3--5--5---5--|
E|-3-3-3-3-3-3-3-3-3-3-3-3-3-3-3-3-|-------5---------5---------5-------------|

Segunda ponte:
G|-----------------------------------------------------------|
D|-----------------5-----------------5-----------------5--3--|
A|--5--3--------------5--3--------------5--3-----------------|
E|--------5--3--1-----------5--3--1-----------5--3--1--------|

Solo de guitarra:
G|-------------------------------------------------------------------------------------------------|
D|-------------------------------------------------------------------------------------------------|
A|--5--5--5--5--5--5--3--3--5--5--5--5--5--5--------------------------3--3--5--5--5--5--5--5--3--3-|
E|--------------------------------------------1--1--3--3--3--3--3--3-------------------------------|

G|-------------------------------------------------------------------------------------------------|
D|-------------------------------------------------------------------------------------------------|
A|--5--5--5--5--5--5--3--3--5--5--5--5--5--5--------------------------3--3-------------------------|
E|--------------------------------------------1--1--3--3--3--3--3--3--------0--0--1--1--2--2--3--3-| x2

Outro/Final
G|-------------------------------------------------|
D|-------------------------------------------------|
A|-------------5--5----5--5----5--5----5--5--------|
E|--3----------------------------------------------|

G|---------------------------------|------------------------------|
D|---------------------------------|------------------------------|
A|---------------------------------|-5--5----5--5----5--5----5--5-|
E|-3-3-3-3-3-3-3-3-3-3-3-3-3-3-3-3-|------------------------------|

G|---------------------------------|---------------------------|---|
D|---------------------------------|---------------------------|---|
A|---------------------------------|-5--5----5--5----5--5----5-|-5-|
E|-3-3-3-3-3-3-3-3-3-3-3-3-3-3-3-3-|---------------------------|---|
Página 1 / 1

Letras y titulo
Acordes y artista

restablecer los ajustes
OK