Não Me Ame Tanto

Karina Buhr

Composição de: Karina Buhr
tono: G
E|---------------|-2--2--2h3-2-|
B|-7-x-7-x-7h8-7-|-3--3--3---3-|
G|-7-x-7-x-7-----|-2--2--2---2-|
D|-7-x-7-x-7-----|-0--0--0---0-|
A|---------------|-------------|
E|---------------|-------------|

riff 1
E|--------------10-9------------|
B|-8-10-8-10-12------10-8-7h8-7-|
G|------------------------------|
D|------------------------------|
A|------------------------------|
E|------------------------------|

      D
Não me ame tanto
Eu tenho algum problema com amor demais
Eu jogo tudo no lixo sempre
      D
Não me ame tanto
Não posso suportar um amor que é mais do que
O que eu sinto por dentro
Penso

(riff 1)      
Desapego corretamente
Ou incorretamente 
                        D
Um sentimento mesquinho 

                  C
Que eu sinto por dentro
  D
Tenso
Por isso não me ame
Não me ame tanto
     D
Não me ame tanto
Eu tenho algum problema com amor demais
Eu jogo tudo no lixo sempre
      D
Não me ame tanto
Não posso suportar um amor que é mais do que
O que eu sinto por dentro
Penso
(Riff 1)
Pego tudo
O meu e o seu amor
Faço um bolo de amor
E jogo fora 
           C
Ou como e gozo
  D
Dentro
Página 1 / 1

Letras y titulo
Acordes y artista

restablecer los ajustes
OK