Um Momento Só

Kid Abelha

Composición de: George Israel / Paula Toller
tono: E
George Israel / Paula Toller

intro:                                          Solo:
E|-2------2-------------4---------0-2--5--------|---------11-12-11-------11-12---14-16-14-14--
B|-4-5--5---4-4-2-2---5---5-----2------5--------|-12---14----------14-12----------------------
G|-4-4--------------4---------2--------6--2/4---|---------------------------------------------
D|-------------------------------------7--------|---------------------------------------------
A|----------------------------------------------|---------------------------------------------
E|----------------------------------------------|---------------------------------------------

E|-12-11-12-11-11-12-11----11-14-12-11----11--------
B|----------------------14-------------14----12-12--
G|--------------------------------------------------
D|--------------------------------------------------
A|--------------------------------------------------
E|--------------------------------------------------



[Intro:] B A E

B                         A E
Quero um momento só pra mim
B                         A E
Quero um momento só pra mim
B
Pra eu pensar no presidente
No meu governo
                A          E
Em outro homem, outra coisa
B
Não importa o que aconteceu
G
Prá inventar um novo mundo
                         B
Quero estar longe de tudo
G
Prá inventar um novo mundo
         A
Quero estar longe de tudo

Quero um momento só pra mim
Eu sei que não sou inocente
Que rezo muito por amor
E penso em Deus
Não acredito em religião
Prá pensar em ser humano
Quero estar longe de tudo

Quero um momento só pra mim
Eu quero um pouco de sossego
Cruzar as pernas e viver na minha esquizofrenia
Aprendendo novos rituais
Prá enfrentar um novo mundo
Quero estar longe de tudo
Quero um momento só pra mim
Página 1 / 1

Letras y titulo
Acordes y artista

restablecer los ajustes
OK