Cifra Club

Aprenda

My Party

Kings Of Leon

Tab de bajo: Principal
intro

G--------------------------------------|
D--------------------------------------|
A--------7-----7-9-----7----7-9--------|
E--9-7-9—-0-9------909--0-9------------|

verse

G-----------------------------|
D-----------------------------|
A-----------------------------|
E-9-99\----/999\----/9999\----|

pre-chorus

G--66--9966-------------------|
D----66----9966---------------|
A-----------------------------|
E-----------------------------|

chorus

G-----------------------------------|
D-----------------------------------|
A-----------------------------------|
E--9999995-5555552-2222222-2222222--|

shakedown

G---------------------------------------------------------|
D---------------------------------------------------------|
A—--------------------------------------------------------|
E—7h9-7h9-7h9-7h9-0-—4h5-4h5-4h5-4h5-0-—0h2-0h2-0h2-0h2-0-|

back to chorus

what a sick song. this is just a general idea, so modify as needed and add some improv 
the shakedown for the ladies, but trust me they’ll already be on you when the first 
kicks in.
Compositor Caleb Followill / Jared Followill / Matthew Followill / Nathan Followill
27 reproducciones

0 comentarios

Mostrar mais comentários

¿Conseguiste tocar?

0 Tocaron 0 Ainda não

Grave um vídeo tocando My Party e mande pra gente!

00:00 / 00:00
outros vídeos desta música
repetir qualidade Automático
Outros vídeos desta música
00:00 / 00:00
Automático
OK