Cifra Club

True Love Way Solo

Kings Of Leon

Tablatura: Principal (guitarra)
Tom: D
e|-12----12-12----12-12----12-14----14---14----|
B|-15b17----15b17----15b17------15~---15~--15~-|
G|---------------------------------------------|
D|---------------------------------------------|
A|---------------------------------------------|
E|---------------------------------------------|

e|-12----12-12----12-12----12-14----14----14---|
B|-15b17----15b17----15b17------15~---15~--15~-|
G|---------------------------------------------|
D|---------------------------------------------|
A|---------------------------------------------|
E|---------------------------------------------|
  
        P.M  
e|------2-2-------------------------2-2----------2-2-2-2-|
B|-15/3-----3-3-3---------3-3------------3---3-----------|
G|----------------4-4-4-2------------------4---4---------|
D|-------------------------------------------------------|
A|-------------------------------------------------------|
E|-------------------------------------------------------|

e|-------14-14------------------------14-14------------------------|
B|-15-15-------15-15-17-17-15--15~----------15-15-17-17-15-15--15~-|
G|-----------------------------------------------------------------|
D|-----------------------------------------------------------------|
A|-----------------------------------------------------------------|
E|-----------------------------------------------------------------|

e|-12----12-12----12-12----12-14----14---14----|
B|-15b17----15b17----15b17------15~---15~--15~-|
G|---------------------------------------------|
D|---------------------------------------------|
A|---------------------------------------------|
E|---------------------------------------------|

e|-12----12-12----12-12----12-14----14----14---|
B|-15b17----15b17----15b17------15~---15~--15~-|
G|---------------------------------------------|
D|---------------------------------------------|
A|---------------------------------------------|
E|---------------------------------------------|

- After the slide, staccato (Put emphasis on each note) the notes until the repeat happens. 
- Matt puts on an effect half way through the solo. I have no clue what it is      sorry.
- Lots of Vibrato on the notes to make it sound good.
reproducciones 76
Acordes para:

    0 comentarios

    mostrar más comentarios

    ¿Conseguiste tocar?

    0 tocaron 0 aún no

    ¡Graba un vídeo tocando True Love Way Solo y envianoslo!

    00:00 / 00:00
    outros vídeos desta música
    repetir qualidade Automático
    Outros vídeos desta música
    00:00 / 00:00
    Automático
    OK