Cifra Club

Got Love For Sale

Kiss

Tab de bajo: Principal
/ = Slide up
\ = Slide down
b = bend (whole step)
b ^ = bend (passo 1 / 2)
b ^ ^ = bend (1 1 / 2 steps)
pb = pre-bend
r = release-bend
t = toque com o dedo do lado direito
h = hammer-on
p = pull-off
~ = Vibrato
* = Natural Harmonic
# (#) = Trill
** = Artificial Harmonic
x = notas Dead (pitch não)
P.M. = Palm mute (- -> indica que notas abaixo)
(\) = W Dive \ bar
(/) = W Release \ bar
Tp = Toque w \ plectro

(rhythm Fig. 1)                                               
Gb|-----------------------------------------|
Db|-----------------------------------------|
Ab|--0--------0----------0-------------5----|
Eb|-------------------------------3---------|

(rhythm Fig. 2a)                                                    
Gb|---------------------------------------------------|
Db|-------------4-----5----------------4-----5--------|
Ab|--0----0-----------------0----0--------------------|
Eb|----------2-----3-----4----------2-----3-----4-----|
                                               
Gb|---------------------------------------------------|
Db|-------------4-----5-------------------------------|
Ab|--0----0--------------0--3-------------------------|
Eb|----------2-----3-------------------3--------------|

(rhythm Fig. 3)                                                    
Gb|---------------------------------------------------|
Db|-------------4-----5----------------4-----5--------|
Ab|--0----0-----------------0----0--------------------|
Eb|----------2-----3-----4----------2-----3-----4-----|
                                               
Gb|---------------------------------------------------|
Db|-------------4-----5-------------------------------|
Ab|--0----0--------------0-------------5--------------|
Eb|----------2-----3--------3-------------------------|

(rhythm Fig. 4)                                                 
Gb|---------------------------------------------------|
Db|-------------2~------------------------------------|
Ab|-----------------------------7----5----5p-0--------|
Eb|--0----3--4-------3--2--0--------------------------|
   < - - - - - - - - - - 2x - - - - - - - - - - >

Gb|---------------------------------------------------|
Db|-------------2~--------------------2~--------------|
Ab|---------------------------------------------------|
Eb|--0----3--4-------3--2--0----3--4-------3--2--0----|
                                               
Gb|---------------------------------------------------|
Db|----------2~---------2----0------------------------|
Ab|-------------------------------4----2--------------|
Eb|----3--4-------3--4--------------------------------|

(rhythm Fig. 5)                                                    
Gb|---------------------------------------------------|
Db|---------------------------------------------------|
Ab|--5----5--3--0--2--0--2--3----3--2--0--------------|
Eb|---------------------------------------3--0--0-----|

Gb|---------------------------------------------------|
Db|-------------4-----5----------------4-----5--------|
Ab|--0----0-----------------0----0--------------0-----|
Eb|----------2-----3-----4----------2-----3-----------|

(rhythm Fig. 6)                                                    
Gb|---------------------------------------------------|
Db|---------------------------------------------------|
Ab|--5----5--3--0--2--0--2--3----3--3--3--3--3--3-----|
Eb|---------------------------------------------------|

Gb|---------------------------------------------------|
Db|-------------2~------------------------------------|
Ab|---------------------------------------------------|
Eb|--0----3--4-------3--2--0--0-----------------------|
reproducciones 14
Composição: Gene Simmons Colaboración y revision:
  • bruno seidi

0 comentarios

mostrar más comentarios

¿Conseguiste tocar?

0 tocaron 0 aún no

¡Graba un vídeo tocando Got Love For Sale y envianoslo!

00:00 / 00:00
outros vídeos desta música
repetir qualidade Automático
Outros vídeos desta música
00:00 / 00:00
Automático
OK