Cifra Club

King Of The Nighttime World

Kiss

Tab de bajo: Principal
Standard Tuning

(Intro)
G:---------|---------|
D:---------|---------|  x2  
A:2-------4|2-------4|
E:----2----|----2----|

G:---------|---------|
D:---------|---------|  x2
A:2--------|2--------|
E:----2---4|----4---2|

I'm the king. . . 
G:---------|---------|---------|---------|---------|---------|
D:---------|4-4-2-1--|---------|---------|2-2-0----|---------|  x2
A:4-4-2-1--|--------4|4---3---2|2-2-0----|------4-2|2-------4|
E:--------4|---------|---------|------4-2|---------|----2----|

G:---------|---------|---------|
D:----6----|---------|222-1----|
A:4-----6-4|---------|------4-2|
E:---------|4---3---2|---------|

G:---------|---------|222-1----|
D:----2-3-4|---------|------4-2|
A:4--------|----1---2|---------|
E:---------|2--------|---------|

G:---------|---------|---------|---------|---------|---------|
D:---------|4-4-2-1--|---------|---------|2-2-0----|---------|  x2
A:4-4-2-1--|--------4|4---3---2|2-2-0----|------4-2|2-------4|
E:--------4|---------|---------|------4-2|---------|----2----|

G:---------|---------|
D:---------|---------|  x2  
A:2-------4|2-------4|
E:----2----|----2----|

G:---------|---------|---------|---------|---------|---------|
D:---------|4-4-2-1--|---------|---------|2-2-0----|---------|  x1
A:4-4-2-1--|--------4|4---3---2|2-2-0----|------4-2|2-------4|
E:--------4|---------|---------|------4-2|---------|----2----|

G:---------|---------|---------|
D:----6----|---------|222-1----|
A:4-----6-4|---------|------4-2|
E:---------|4---3---2|---------|

G:---------|---------|222-1----|
D:----2-3-4|---------|------4-2|
A:4--------|----1---2|---------|
E:---------|2--------|---------|

G:---------|---------|
D:--------6|--------6|  x8
A:4---4----|4---4----|
E:---------|---------|

G:---------|---------|---------|---------|---------|---------|
D:---------|4-4-2-1--|---------|---------|2-2-0----|---------|  x2
A:4-4-2-1--|--------4|4---3---2|2-2-0----|------4-2|2-------4|
E:--------4|---------|---------|------4-2|---------|----2----|

G:---------|---------|6-8-8-9-9|8---6----|
D:---------|6-8-8-8-9|---------|--------9|
A:----6-7-9|---------|---------|---------|
E:7-9------|---------|---------|---------|

G:---------|---------|---------|---------|---------|---------|
D:---------|4-4-2-1--|---------|---------|2-2-0----|---------|  x2
A:4-4-2-1--|--------4|4---3---2|2-2-0----|------4-2|2-------4|
E:--------4|---------|---------|------4-2|---------|----2----|
|--------------Repeat this until song fades out--------------|

Thanks, please rate it after you learn it.
Tabbed by:
_TheBassist01_
reproducciones 23

0 comentarios

mostrar más comentarios

¿Conseguiste tocar?

0 tocaron 0 aún no

¡Graba un vídeo tocando King Of The Nighttime World y envianoslo!

00:00 / 00:00
outros vídeos desta música
repetir qualidade Automático
Outros vídeos desta música
00:00 / 00:00
Automático
OK