Shitlist

L7

Composición de: Donita Sparks
tono: D
INTRO: F#4 A4 G#4 B4

   F#4 A4  G#4 B4
E|---------------------------------------------------------------------------|
B|---------------------------------------------------------------------------|
G|---------------------------------------------------------------------------|
D|000-333-222-5555-----------------------------------------------------------|
A|222-555-444-7777-----------------------------------------------------------|
E|222-555-444-7777-----------------------------------------------------------|

GUITARRA 2:

E|----------------------------------------------------------------------------|
B|-12-(12)--(12)---------------------------------10---------------------------|
G|------------------9~------9-12---9~------9-12-------9-9-9-12-9--9\----------|
D|-9--(9)---(12)--------------------------------------------------------------|
A|----------------------------------------------------------------------------|
E|----------------------------------------------------------------------------|

VERSOS: F#4 A4 G#4 B4

   F#4 A4  G#4 B4
E|---------------------------------------------------------------------------|
B|---------------------------------------------------------------------------|
G|---------------------------------------------------------------------------|
D|000-333-222-5555-----------------------------------------------------------|
A|222-555-444-7777-----------------------------------------------------------|
E|222-555-444-7777-----------------------------------------------------------|

(F#4 A4 G#4 B4)
When I get mad and I get pissed
I grab my pen and I write out a list
Of all the people that won't be missed
You've made my shitlist

E|----------------------------------------------------------------------------|
B|-12-(12)--(12)---------------------------------10---------------------------|
G|------------------9~------9-12---9~------9-12-------9-9-9-12-9--9\----------|
D|-9--(9)---(12)--------------------------------------------------------------|
A|----------------------------------------------------------------------------|
E|----------------------------------------------------------------------------|

(F#4 A4 G#4 B4)
For all the ones who put me out (shitlist)
For all the ones who filled my head with downs (shitlist)
For all the squares that got me pissed (shitlist)
You've made my shitlist

REFRÃO:

(F#4 A4 G#4 B4)
Shitlist, shitlist

GUITARRA 2:
E|-----------------------------|
B|-----------------------------|
G|-----------------------------|
D|-9---(9)----9-12---9------9\-|
A|-----------------------------|
E|-----------------------------|

SOLO:

E|--------12--12--12--12--12--12---16--16--16--16--16--12----------------------|
B|-10---12--12--12--12--12--12---15--15--15--15--15--15---10b-10b-10b-10b-8-10-|
G|-----------------------------------------------------------------------------|
D|-----------------------------------------------------------------------------|
A|-----------------------------------------------------------------------------|
E|-----------------------------------------------------------------------------|

E|------------------9b---9b---9b---9b---9b---9b----|
B|-8-8-8---8-10--10b--10b--10b--10b--10b--10b--10\-|
G|-------9-----------------------------------------|
D|-------------------------------------------------|
A|-------------------------------------------------|
E|-------------------------------------------------|

VERSOS: F#4 A4 G#4 B4

(F#4 A4 G#4 B4)
When I get mad and I get pissed (shitlist)
I grab my pen and I write out a list (shitlist)
Of all you assholes that won't be missed (shitlist)
You've made my shitlist

E|----------------------------------------------------------------------------|
B|-12-(12)--(12)---------------------------------10---------------------------|
G|------------------9~------9-12---9~------9-12-------9-9-9-12-9--9\----------|
D|-9--(9)---(12)--------------------------------------------------------------|
A|----------------------------------------------------------------------------|
E|----------------------------------------------------------------------------|

REFRÃO:

(F#4 A4 G#4 B4)
Shitlist, shitlist
Shitlist, shitlist

GUITARRA 2:
E|-----------------------------|
B|-----------------------------|
G|-----------------------------|
D|-9---(9)----9-12---9------9\-|
A|-----------------------------|
E|-----------------------------|
Página 1 / 1

Letras y titulo
Acordes y artista

restablecer los ajustes
OK