Cifra Club

Aprenda

Tantas Cosas Que Contar

La Oreja De Van Gogh

Tablatura: Principal (guitarra)
tono: B (con acordes en la forma de A) Capotraste na 2ª casa
    A
E|---------0--------0---------|
B|------2-----2--3-----3--2---|
G|---2------------------------|
D|----------------------------|
A|----------------------------|
E|----------------------------|
    Siento que hoy no puedo más
    Te busco y sólo encuentro mar
    Necesito verte y ha-

    Bm
|--------2--------2--------|
|-----3-----3--5-----5--3--|
|--4-----------------------|
|--------------------------|
|--------------------------|
|--------------------------|

     D
|---------2-----0--2--0------|
|------3-----3-----------3---|
|---2------------------------|
|----------------------------|
|----------------------------|
|----------------------------|
 Sé que estás lejos de aquí
 sonriendo sin reír

    A
E|---------0--------0---------|
B|------2-----2--3-----3--2---|
G|---2------------------------|
D|----------------------------|
A|----------------------------|
E|----------------------------|
   Escribiendo algo para mí.

A
Siento que hoy no puedo más
Te busco y sólo encuentro mar
                    Bm
Necesito verte y hablar.
D
Sé que estás lejos de aquí
Sonriendo sin reír
A
Escribiendo algo para mí.
A
En la noche fui a buscar
En tus brazos el lugar
                            Bm
Que hace años no supe encontrar.
D
Te he escuchado caminar
Te siento pero tú no estás
A
Mírate, y mira ahora hacia atrás.
F#m
Has venido a despertar
E
Mi alegría y felicidad
D
Tengo tantas cosas que contar.

A     D             A
Ven, vuélvete a dormir
D              F#m
Vuelve a descubrir
        A             E
Todo aquello junto a mí.

A
¡Qué de dudas te serví!
¡Qué de cosas me perdí!
                            Bm
¡Que de veces me has hecho reír!
D
¡Cuanto tiempo sin llorar,
sin sentir, sin escuchar,
A
sin tener algo de que hablar!
A
Tú sentado frente a mí
Miro y sólo veo en ti
                        Bm
Todo lo que queda por vivír
D
Y en tus ojos sin querer
Tantas ganas de querer
A
Que sólo quiero verlos otra vez.
F#m
Has venido a despertar
E
Mi alegría y felicidad
D
Tengo tantas cosas que contar.

A     D             A
Ven, vuélvete a dormir
D              F#m
Vuelve a descubrir
        A             E
Todo aquello junto a mí.

F#m
Has venido a despertar
E
Mi alegría y felicidad
D
Tengo tantas cosas que contar.

A     D             A
Ven, vuélvete a dormir
D              F#m
Vuelve a descubrir
        A             E
Todo aquello junto a mí. (bis)

A   D   A   D   F#m   E   D   A
Uh, uh, uh...
Composição de Amaia Montero
Colaboración y revision:
  • Michelle Oliveira
406 reproducciones
    • ½ Tono
    • A
    • Bb
    • B
    • C
    • Db
    • D
    • Eb
    • E
    • F
    • F#
    • G
    • Ab
  • Adicionar à lista

    0 comentarios

    Ver todos os comentários

    ¿Conseguiste tocar?

    0 Tocaram 0 Ainda não

    Grave um vídeo tocando Tantas Cosas Que Contar e nos envie!

    00:00 / 00:00
    outros vídeos desta música
    repetir qualidade Automático
    Outros vídeos desta música
    00:00 / 00:00
    Automático
    OK