La Solución Final

La Polla Records

tono: C#m
Intro :

E|------------------------------------|
B|------------------------------------|
G|----------6-6-6---------------------|
D|--2--2----6-6-6-----7-7-7---7-7-7---|
A|--2--2----4-4-4-----7-7-7---7-7-7---|
E|--0--0--------------9-9-9---9-9-9---|


Después de la intro :

E|------------------------------|
B|------------------------------|
G|-----------------------6------|
D|--7--9--9--9--9--7--6--6------|
A|--7--9--9--9--9--7--6--4------|
E|--5--7--7--7--7--5--4---------|



Como alcalde y buen burgués :

E|---------|
B|---------|
G|----6----|
D|----6----|
A|----4----|
E|---------|

Tu deber y tu misión es ha/

E|---------|
B|---------|
G|---------|
D|----7----|
A|----7----|
E|----5----|

/Cer un buen escaparate

E|---------|
B|---------|
G|---------|
D|----9----|
A|----9----|
E|----7----|

Para comerciar

E|---------|
B|---------|
G|---------|
D|----6----|
A|----6----|
E|----4----|

Se repite constantemente la misma secuencia de acordes.


Estribillo ( La solución es una cámara de gas...)

E|-------------------------------------|
B|-------------------------------------|
G|-----------9---6-----------9---6-----|
D|---7---9---9---6---7---9---9---6-----|
A|---7---9---7---4---7---9---7---4-----|
E|---5---7-----------5---7-------------|


Durante el solo, se acoplan los acordes de la intro.

Solo (2:05)

E|-----------------------------------------------------------------|
B|-----------------------------------------------------------------|
G|--8-6-9-11-9-6-4-4-4--4-4-4---9-6-8-11-6-6-8/9-4-4-4--4-4-4------|
D|-----------------------------------------------------------------|
A|-----------------------------------------------------------------|
E|-----------------------------------------------------------------|

Sigue el solo (2:15)

E|--------------------------7---------------------------------------------7------------------|
B|--9-10-9-7----9-10-9-7------9-10-9-7----------9-10-9-7-----9-10-9-7--------9-10-9-7--------|
G|----------9-6---------9-6-----------9-6-4^--6----------9-6----------9-6-------------9-6-4^-|
D|-------------------------------------------------------------------------------------------|
A|-------------------------------------------------------------------------------------------|
E|-------------------------------------------------------------------------------------------|

Y el final así (2:26)

E|------------------------------------------|
B|----7--9-9-9--9-7---7^----------7-7-------|
G|--9----9-9-9------9-------9-6-9----9-6-4^-|
D|------------------------------------------|
A|------------------------------------------|
E|------------------------------------------|
Página 1 / 1

Letras y titulo
Acordes y artista

restablecer los ajustes
OK