Alleine Zu Zweit

Lacrimosa

Composición de: Tilo Wolff
tono: Bb
-1ª parte

e|-----| 8x e|---------------------------|
b|-2-2-|    b|-7-7-7-7-9-6-6-6-6-6-6-6-6-|
g|--3-3|    g|--8-8-8-----5-5-5-5-5-5-5-5|
d|-----|    d|---------------------------|
a|-----|    a|---------------------------|
E|-----|    E|---------------------------|

e|-----| 8x e|---------------------------|
b|-2-2-|    b|-7-7-7-7-9-6-6-6-6-6-6-6-6-|
g|--3-3|    g|--8-8-8-----5-5-5-5-5-5-5-5|
d|-----|    d|---------------------------|
a|-----|    a|---------------------------|
E|-----|    E|---------------------------|

e|------------------------------------------|
b|-8-8-8-8-8-8-8-8-8-8-8-8-6-6-6-6-6-6-6-6--| 2x
g|--7-7-7-7-7-7-7-7-8-8-8-8-5-5-5-5-5-5-5-5-|
d|------------------------------------------|
a|------------------------------------------|
E|------------------------------------------|

-Refrão*

(G5 - G5 - D#5 - D5) 2x
(G5 - G5/F - D#5 - D5 - D5) 2x

*power chords

Depois do refrão, antes da parte cantada*

Gm - D# - F - Dm

*dedilhado

2ª parte

Bb5 (4 tempos) - F#5 - F5 (2 tempos)
G5 - G5 - D#5 - D5


ai vem o Refrão


Ai vem uma parte sem guitarra, ai qdo aparece a guitarra faz um solo +- assim:

e|------------------------------------------10-10*-|
b|-10/11/10----10-11-13-11-10---10-11-10-13--------|
g|-----------12---------------12-------------------|
d|-------------------------------------------------|
a|-------------------------------------------------|
e|-------------------------------------------------|

* c/ bend

/ = slide


(G5 - G5/F - D#5 - D5 - D5) 3x
G5 - G5/F - D#5 - D5 - D5 - D5 - E5


G5/F

a|5
E|1

fim! xD
Página 1 / 1

Letras y titulo
Acordes y artista

restablecer los ajustes
OK