Cifra Club

Foot To The Throat

Lamb of God

Cifrado: Principal (guitarra y guitarra eléctrica)
tono: E
[code]-------------------------------------------------------------------------------|
-------------------------------------------------------------------------------------|
-------------------------------------------------------------------------------------|
-7\------------------------------------------------10\-------------------------------|
-5\-------------------------------------------5-4---8\-------------------------------|
----0-0-0--0-0-0--0-0-0--0-0-0--0-0-0--0-0-0------------0-0-0--0-0-0--0-0-0----------|

------------------------------------------------------------------------------|
------------------------------------------------------------------------------|
------------------------------------------------------------------------------|
----------------------7\------------------------------------------------------|
--6---------3---------5\--------------------------------------------5-4-------|
--6--0-0-0--3--0-0-0------0-0-0--0-0-0--0-0-0--0-0-0--0-0-0--0-0-0------4-3---|

------------------------------------------------------------------------------|
------------------------------------------------------------------------------|
------------------------------------------------------------------------------|
----3-------------------------------------------------------------------------|
--2---2-----------------------------------------------------------------------|
--------6-7-6--9b10r9-7-9-7-4-6-3---------------------------------------------|
                               etc

------------------------------------------------------------------------------|
------------------------------------------------------------------------------|
------------------------------------------------------------------------------|
----------------------------------7\-------------------------10\--------------|
-2-2-2-2-2-2-2--2/3--3-3-3-3-6-3--5\---------------------5-4--8\---------6----|
-2-2-2-2-2-2-2--2/3--3-3-3-3---------0-0-0-0-0-0-0-0-0-0---------0-0-0-0-6----|

------------------------------------------------------------------------------|
------------------------------------------------------------------------------|
------------------------------------------------------------------------------|
-----------7\-------------------------------3---------------------------------|
-----3-----5\---------------------5-4-----2---2-------------------------------|
-0-0-3-0-0----0-0-0-0-0-0-0-0-0-0-----4-3--------6-7-6--9b10r9-7-9-7-4-6-3----|

------------------------------------------------------------------------------|
------------------------------------------------------------------------------|
------------------------------------------------------------------------------|
--7\--------------------------10\---------------------7\----------------------|
--5\---------------------5-4---8\---------6-----3-----5\----------------------|
-----0-0-0-0-0-0-0-0-0-0----------0-0-0-0-6-0-0-3-0-0----0-0-0-0-0-0-0-0-0-0--|

------------------------------------------------------------------------------|
------------------------------------------------------------------------------|
------------------------------------------------------------------------------|
-----------3----------------------------8-------------------------------------|
-5-4-----2---2--------------------------6--------------9b10r9-----------------|
-----4-3-------6-7-6--9b10r9--7-9-10-9------0--0-10-13--------13--0--0-0-0----|

------------------------------------------------------------------------------|
------------------------------------------------------------------------------|
------------------------------------------------------------------------------|
-----------12-----------------------------------------------------------------|
--5/8-11-8-----------4-7--7h8p7-8----------5-8-7-4-6---------------9b10r9-----|
--------------0--0-0---------------0--0-0--5-8-7-4-6--0--0-0-10-13--------13--|

------------------------------------------------------------------------------|
------------------------------------------------------------------------------|
------------------------------------------------------------------------------|
-------------------12----------7-7h8p7-----------2-2h3p2----------------------|
----------5/8-11-8----4-----10---------9--3----5---------4--------------------|
-0--0-0-0-------------4---8---------------3--3--------------------------------|
                                                            etc

------------------------------------------------------------------------------|
------------------------------------------------------------------------------|
------------------------------------------------------------------------------|
---------7-7h8p7--------12----------------------------------------------------|
--8---10---------10--10----10-11\--3-2-0--------------------------------------|
--8-8----------------10----10-11\--3-2-0--------------------------------------|

------------------------------------------------------------------------------|
------------------------------------------------------------------------------|
------------------------------------------------------------------------------|
--3-6-6h7p6-3----------3-6-6h7p6-3----------------3-2-----3-------------------|
-------------------0----------------------------1-----4-5---0-----------------|
-------------------0------------------0-0-------------------0-----------------|
                                          etc                   etc

------------------------------------------------------------------------------|
------------------------------------------------------------------------------|
------------------------------------------------------------------------------|
-------------------------------------------------------------------------3-2--|
-----------------------------------------------------------------------1------|
--3-2-4-3-2-3-7-6-4-7-6-3--0--0-0-0-0-0-0--0--0-0-0--0-0-0-0-0-0-0-0-0--------|

------------------------------------------------------------------------------|
------------------------------------------------------------------------------|
------------------------------------------------------------------------------|
-----3----------------------------------------3-2-----3-----3-6-6h7p6-3-------|
-4-5----------------------------------------1-----4-5---0------------------0--|
-------0--0-0-0-0-0-0--0--0-0-0-0-0-0-0-0-0-------------0------------------0--|

------------------------------------------------------------------------------|
------------------------------------------------------------------------------|
------------------------------------------------------------------------------|
-3-6-6h7p6-3--------3-6-6h7p6-3--------3-2-----3------------------------------|
-----------------0-------------------1-----4-5---0----------------------------|
-----------------0-------------------------------0--3-2-4-3-2-4-7-6-4-7-6-3-0-|

------------------------------------------------------------------------------|
------------------------------------------------------------------------------|
------------------------------------------------------------------------------|
-----------------------------------------------3-2-----3----------------------|
---------------------------------------------1-----4-5------------------------|
-0--0-0-0-0-0-0--0--0-0-0--0-0-0-0-0-0-0-0-0----------------------------------|
                                                         etc

------------------------------------------------------------------------------|
------------------------------------------------------------------------------|
-------------------------------------------------------4/6--------------------|
-------3-6-6h7p6-3------------------------------------------------------------|
--5-----------------8-----------------7---4-7-7h8p7-8-------1-4-4h5p4-5-------|
-----------------------3-6-6h7p6-3--------------------------------------------|

------------------------------------------------------------------------------|
------------------------------------------------------------------------------|
------------------------------------------------------------------------------|
----3-6-6h7p6-3----------------------7\---------------------------------------|
--------------------------------0----5\---------------------------------------|
--0--------------0-3-6-6h7p6-3--0--------0-0-0--0-0-0--0-0-0--0-0-0--0-0-0----|

------------------------------------------------------------------------------|
------------------------------------------------------------------------------|
------------------------------------------------------------------------------|
-------------0----------------------------------------------------------------|
--------5-4--0----------------------------------------------------------------|
-0-0-0-------0----------------------------------------------------------------|[/code]
00:00 / 00:00
Otros videos de esta canción
Repetir
Otros videos de esta canción
Composición de Lamb of God
14 vistas
    • ½ Tono
    • A
    • Bb
    • B
    • C
    • Db
    • D
    • Eb
    • E
    • F
    • F#
    • G
    • Ab
  • Agregar a la lista

    0 comentarios

    Ver todos los comentarios

    ¿Lograste tocar?

    0 Tocaron 0 Aún no

    ¡Graba un video tocando Foot To The Throat y envíanoslo!

    00:00 / 00:00
    OK