Set To Fail

Lamb of God

Composición de: Lamb of God
tono: D
Gtr I (D A D G B E) - 'Mark Morton'
Gtr II (D A D G B E) - 'Willie Adler'

  Q=230
 4/4

  Gtrs I, II

  PM--|   PM--|     PM--|   PM--|     PM--|   PM--|     PM--|   PM----|
   E E E E E E E E   E E E E E E E E   E E E E E E E E   E E E E E E E E
|-----------------|-----------------|-----------------|------------------|
|-----------------|-----------------|-----------------|------------------|
|-----------------|-----------------|-----------------|------------------|
|-----------------|-----------------|-----------------|------------------|
|-2-2-2-3-2-2-2-3-|-2-2-2-3-2-2-2-3-|-2-2-2-3-2-2-2-3-|-2-2-2-3-2-2-2-2--|
|-2-2-2-3-2-2-2-3-|-2-2-2-3-2-2-2-3-|-2-2-2-3-2-2-2-3-|-2-2-2-3-2-2-2-2--|

    PM--|   PM--|     PM--|   PM--|     PM--|   PM--|     PM--|   PM--|
   E E E E E E E E   E E E E E E E E   E E E E E E E E   E E E E E E E E
|-----------------|-----------------|-----------------|-----------------|
|-----------------|-----------------|-----------------|-----------------|
|-----------------|-----------------|-----------------|-----------------|
|-----------------|-----------------|-----------------|-----------------|
|-3-2-2-2-3-2-2-2-|-3-2-2-2-3-2-2-2-|-3-2-2-2-3-2-2-2-|-3-2-2-2-3-2-2-2-|
|-3-2-2-2-3-2-2-2-|-3-2-2-2-3-2-2-2-|-3-2-2-2-3-2-2-2-|-3-2-2-2-3-2-2-2-|

  PM--|   PM--|     PM--|   PM--|     PM--|   PM--|     PM--|   PM----|
   E E E E E E E E   E E E E E E E E   E E E E E E E E   E E E E E E E E
|-----------------|-----------------|-----------------|-----------------|
|-----------------|-----------------|-----------------|-----------------|
|-----------------|-----------------|-----------------|-----------------|
|-----------------|-----------------|-----------------|-----------------|
|-2-2-2-3-2-2-2-3-|-2-2-2-3-2-2-2-3-|-2-2-2-3-2-2-2-3-|-2-2-2-3-2-2-2-2-|
|-2-2-2-3-2-2-2-3-|-2-2-2-3-2-2-2-3-|-2-2-2-3-2-2-2-3-|-2-2-2-3-2-2-2-2-|


    PM--|   PM--|     PM--|   PM--|                                  ~
   E E E E E E E E   E E E E E E E E   E E E E E E E E   E E Q  E E E E
|-----------------|-----------------|-----------------|----------------|
|-----------------|-----------------|-----------------|----------------|
|-----------------|-----------------|-----------------|----------------|
|-----------------|-----------------|-3-2-2-2-2-2-2-2-|-2--------------|
|-3-2-2-2-3-2-2-2-|-3-2-2-2-3-2-2-2-|-3-2-2-2-2-2-2-2-|-2--------------|
|-3-2-2-2-3-2-2-2-|-3-2-2-2-3-2-2-2-|-3-2-2-2-2-2-2-2-|-2------3-2-0-5-|


  $
   ~~~           ~~~~~~~~           ~~~~~~~~                             ~
   +Q   E E E E E E   +Q   E E E E E E   +Q   E E E E E E   E E E E E E E E
|------------------|------------------|------------------|-----------------|
|------------------|------------------|------------------|-----------------|
|------------------|------------------|------------------|-----------------|
|------------------|------------------|------------------|-----------------|
|------------------|------------------|------------------|-----------------|
|-(5)--2-2-2-3-0-5-|-(5)--2-2-2-3-0-5-|-(5)--2-2-2-2-2-2-|-0-2-2-2-3-2-0-8-|


   ~~~           ~~~~~~~~           ~~~~~~~~                       PM--|
   +Q   E E E E E E   +Q   E E E E E E   +Q   E E E E E E   E E E E E E E E
|------------------|------------------|------------------|-----------------|
|------------------|------------------|------------------|-----------------|
|------------------|------------------|------------------|-----------------|
|------------------|------------------|------------------|---------------7-|
|------------------|------------------|------------------|---------3-2-0-5-|
|-(8)--2-2-2-3-0-5-|-(5)--2-2-2-3-0-5-|-(5)--2-2-2-2-2-2-|-0-2-2-2-3-2-0---|


                  ~~~~~~~~           ~~~~~~~~                             ~
   +Q    E E E E E E   +Q   E E E E E E   +Q   E E E E E E   E E E E E E E E
|-------------------|------------------|------------------|-----------------|
|-------------------|------------------|------------------|-----------------|
|-------------------|------------------|------------------|-----------------|
|-(7)\--------------|------------------|------------------|-----------------|
|-(5)\--------------|------------------|------------------|-----------------|
|-------2-2-2-3-0-5-|-(5)--2-2-2-3-0-5-|-(5)--2-2-2-2-2-2-|-0-2-2-2-3-2-0-3-|


   ~~~           ~~~~~~~~               PM----------------------------| ~
   +Q   E E E E E E   +Q   E E E E E E   E E E E E E E E   E E E E E E E E
|------------------|------------------|-----------------|-----------------|
|------------------|------------------|-----------------|-----------------|
|------------------|------------------|-----------------|-----------------|
|------------------|------------------|-----------------|-----------------|
|------------------|------------------|-2-2-2-3-3-3-4-4-|-4-5-5-5-3-2-0---|
|-(3)--2-2-2-3-0-3-|-(3)--2-2-2-3-0-5-|-2-2-2-3-3-3-4-4-|-4-5-5-5-3-2-0-5-|


   ~~~ PM--|   PM----|   PM--|   PM----|   PM--|   PM----|   PM|       ~
   +Q   E E E E E E   E E E E E E E E   E E E E E E E E   E E E E E E E E
|------------------|-----------------|-----------------|-----------------|
|------------------|-----------------|-----------------|-----------------|
|------------------|-----------------|-----------------|-----------------|
|------------------|-----------------|-----------------|-----------------|
|------2-2-2-3-2-2-|-2-3-2-2-2-3-2-2-|-2-3-2-2-2-3-2-2-|-2-3-2-2---------|
|-(5)--2-2-2-3-2-2-|-2-3-2-2-2-3-2-2-|-2-3-2-2-2-3-2-2-|-2-3-2-2-3-2-0-8-|


   ~~~ PM--|   PM----|   PM--|   PM----|   PM--|   PM----|   PM|       ~
   +Q   E E E E E E   E E E E E E E E   E E E E E E E E   E E E E E E E E
|------------------|-----------------|-----------------|-----------------|
|------------------|-----------------|-----------------|-----------------|
|------------------|-----------------|-----------------|-----------------|
|------------------|-----------------|-----------------|-----------------|
|------2-2-2-3-2-2-|-2-3-2-2-2-3-2-2-|-2-3-2-2-2-3-2-2-|-2-3-2-2---------|
|-(8)--2-2-2-3-2-2-|-2-3-2-2-2-3-2-2-|-2-3-2-2-2-3-2-2-|-2-3-2-2-3-2-0-5-|


   ~~~ PM--|   PM----|   PM--|   PM----|   PM--|   PM----|   PM|       ~
   +Q   E E E E E E   E E E E E E E E   E E E E E E E E   E E E E E E E E
|------------------|-----------------|-----------------|-----------------|
|------------------|-----------------|-----------------|-----------------|
|------------------|-----------------|-----------------|-----------------|
|------------------|-----------------|-----------------|-----------------|
|------2-2-2-3-2-2-|-2-3-2-2-2-3-2-2-|-2-3-2-2-2-3-2-2-|-2-3-2-2---------|
|-(5)--2-2-2-3-2-2-|-2-3-2-2-2-3-2-2-|-2-3-2-2-2-3-2-2-|-2-3-2-2-3-2-0-8-|


   ~~~ PM--|   PM----|   PM--|   PM|
   +Q   E E E E E E   E E E E E E E E   E E E E E E E E   E E E E E E E E
|------------------|-----------------|-----------------|-----------------|
|------------------|-----------------|-----------------|-----------------|
|------------------|-----------------|-----------------|-----------------|
|------------------|-----------------|-----------------|-----------------|
|------2-2-2-3-2-2-|-2-3-2-2-2-3-2-2-|-5-------5---5---|-----------------|
|-(8)--2-2-2-3-2-2-|-2-3-2-2-2-3-2-2-|---2-0-2---2---2-|-5-4-3-0-3-0-6-3-|


    PM--|     PM      PM------|  ~~~    PM--|
     E E E  Q  E  Q    E E E E E  Q.     E E E Q  E Q    E E E E E E E E
||------------------|-----------------|---------------|-------------------||
||o-----------------|-----------------|---------------|------------------o||
||------------------|-----------------|---------------|-------------------||
||------------------|-----------------|---------------|-------------------||
||o-----------------|-----------------|---------------|------------------o||
||--0-0-0-10--0-12--|-0-0-0-0-0-[3]---|-0-0-0-7--3-7--|-6-2-0-1-5-1-0-1---||


  PM--|     PM      PM--|     PM      PM--|           PM--|
   E E E  Q  E  Q    E E E  Q  E  Q    E E E Q  E Q    E E E E E E E E
|-----------------|-----------------|---------------|-----------------|
|-----------------|-----------------|---------------|-----------------|
|-----------------|-----------------|---------------|-----------------|
|-----------------|-----------------|---------------|-----------------|
|-------10----12--|-------10----12--|---------------|-------6-5-3-0-3-|
|-0-0-0-10--0-12--|-0-0-0-10--0-12--|-0-0-0-7--3-7--|-0-0-0-6-5-3-0-3-|


                                                                  D.S.
  PM--|     PM      PM--|     PM      PM----------------------|       ~
   E E E  Q  E  Q    E E E  Q  E  Q    E E E E E E E E   E E E E E E E E
|-----------------|-----------------|-----------------|-----------------|
|-----------------|-----------------|-----------------|-----------------|
|-----------------|-----------------|-----------------|-----------------|
|-----------------|-----------------|-----------------|-----------------|
|-------10----12--|-------10----12--|-2-2-2-3-3-3-4-4-|-4-5-5-5---------|
|-0-0-0-10--0-12--|-0-0-0-10--0-12--|-2-2-2-3-3-3-4-4-|-4-5-5-5-3-2-0-5-|


   ~~~           ~~~~~~~~           ~~~~~~~~                             ~
   +Q   E E E E E E   +Q   E E E E E E   +Q   E E E E E E   E E E E E E E E
|------------------|------------------|------------------|-----------------|
|------------------|------------------|------------------|-----------------|
|------------------|------------------|------------------|-----------------|
|------------------|------------------|------------------|-----------------|
|------------------|------------------|------------------|-----------------|
|-(5)--2-2-2-3-0-5-|-(5)--2-2-2-3-0-5-|-(5)--2-2-2-2-2-2-|-0-2-2-2-3-2-0-8-|


   ~~~           ~~~~~~~~           ~~~~~~~~                       PM--|
   +Q   E E E E E E   +Q   E E E E E E   +Q   E E E E E E   E E E E E E E E
|------------------|------------------|------------------|-----------------|
|------------------|------------------|------------------|-----------------|
|------------------|------------------|------------------|-----------------|
|------------------|------------------|------------------|---------------7-|
|------------------|------------------|------------------|---------3-2-0-5-|
|-(8)--2-2-2-3-0-5-|-(5)--2-2-2-3-0-5-|-(5)--2-2-2-2-2-2-|-0-2-2-2-3-2-0---|


                  ~~~~~~~~           ~~~~~~~~                             ~
   +Q    E E E E E E   +Q   E E E E E E   +Q   E E E E E E   E E E E E E E E
|-------------------|------------------|------------------|-----------------|
|-------------------|------------------|------------------|-----------------|
|-------------------|------------------|------------------|-----------------|
|-(7)\--------------|------------------|------------------|-----------------|
|-(5)\--------------|------------------|------------------|-----------------|
|-------2-2-2-3-0-5-|-(5)--2-2-2-3-0-5-|-(5)--2-2-2-2-2-2-|-0-2-2-2-3-2-0-3-|


   ~~~           ~~~~~~~~               PM----------------------|
   +Q   E E E E E E   +Q   E E E E E E   E E E E E E E E   E E E E  E  E  E  E
|------------------|------------------|-----------------|---------------------|
|------------------|------------------|-----------------|---------------------|
|------------------|------------------|-----------------|---------------------|
|------------------|------------------|-----------------|---------------------|
|------------------|------------------|-2-2-2-3-3-3-4-4-|-4-5-5-5-10-10-10-10-|
|-(3)--2-2-2-3-0-3-|-(3)--2-2-2-3-0-5-|-2-2-2-3-3-3-4-4-|-4-5-5-5-10-10-10-10-|


  Gtr I
  PM-----------------------------------------
  E E E E E E S S S S   E E E E E E S S S S
|---------------------|---------------------|
|---------------------|---------------------|
|---------------------|---------------------|
|---------------------|---------------------|
|---------------------|---------------------|
|-2-2-2-2-2-2-2-0-0-0-|-2-2-2-2-2-2-2-0-0-0-|

 ---------------------------------|
   E E E E E E E E   E E E E E E E E
|-----------------|-----------------|
|-----------------|-----------------|
|-----------------|-----------------|
|-----------------|-----------------|
|-----------------|-----------------|
|-2-2-2-2-2-2-2-0-|-2-5-2-0-7-5-0-5-|


  PM-----------------------------------------
  E E E E E E S S S S   E E E E E E S S S S
|---------------------|---------------------|
|---------------------|---------------------|
|---------------------|---------------------|
|---------------------|---------------------|
|---------------------|---------------------|
|-2-2-2-2-2-2-2-0-0-0-|-2-2-2-2-2-2-2-0-0-0-|

 ---------------------------------|
   E E E E E E E E   E E E E E E E E
|-----------------|-----------------|
|-----------------|-----------------|
|-----------------|-----------------|
|-----------------|-----------------|
|-----------------|-----------------|
|-2-2-2-2-2-2-2-0-|-2-5-2-0-7-5-0-5-|


  Gtrs I, II
  PM-----------------------------------------
  E E E E E E S S S S   E E E E E E S S S S
|---------------------|---------------------|
|---------------------|---------------------|
|---------------------|---------------------|
|---------------------|---------------------|
|---------------------|---------------------|
|-2-2-2-2-2-2-2-0-0-0-|-2-2-2-2-2-2-2-0-0-0-|

 ---------------------------------|
   E E E E E E E E   E E E E E E E E
|-----------------|-----------------|
|-----------------|-----------------|
|-----------------|-----------------|
|-----------------|-----------------|
|-----------------|-----------------|
|-2-2-2-2-2-2-2-0-|-2-5-2-0-7-5-0-5-|


  PM-----------------------------------------
  E E E E E E S S S S   E E E E E E S S S S
|---------------------|---------------------|
|---------------------|---------------------|
|---------------------|---------------------|
|---------------------|---------------------|
|---------------------|---------------------|
|-2-2-2-2-2-2-2-0-0-0-|-2-2-2-2-2-2-2-0-0-0-|

 ---------------------------------|
   E E E E E E E E   E E E E E E E E
|-----------------|-----------------|
|-----------------|-----------------|
|-----------------|-----------------|
|-----------------|-----------------|
|-----------------|-----------------|
|-2-2-2-2-2-2-2-0-|-2-5-2-0-7-5-0-5-|


  Gtr I
                        ~~~~~~~~~
    E  E  E  E  E  E  E  E    +E   E  E  E  E  E  E  E
|-------------------------|-------------------------------|
|-------------------------|-------------------------------|
|-------------12----------|---------------12----12-14b15==|
|-14-12-14-12----14-12-14-|-(14)-14-14-14----14-----------|
|-------------------------|-------------------------------|
|-------------------------|-------------------------------|
|
| Gtr II
|                       ~~~~~~~~~                   ~~~~~~~
|  E  E  E  E  E  E  E  E    +Q      E  E  E  E  E  E
|-------------------------|-------------------------------|
|-------------------------|-------------------------------|
|-------------------------|-------------------------------|
|-------------------------|-------------------------------|
|-------------------------|-------------------------------|
|--2--2--2--2--2--2--0--2-|--(2)-----2--2--2--2--0--2-----|

                                   ~~
    |---3---|
    +E    E  E  E  E  E  E  E  E    H         E  E  E  E
|-------------------------------|--------------12--------|
|-------------------------------|----------/12----12-15--|
|-(14)rp12----14-------12-------|------------------------|
|----------14----14-14----14-12-|-14---------------------|
|-------------------------------|------------------------|
|-------------------------------|------------------------|
|
|~~~~~~~~
|  +Q          E  E  E  E  E  E    E E E E   E  E  E  E
|-------------------------------|------------------------|
|-------------------------------|------------------------|
|-------------------------------|------------------------|
|-------------------------------|------------------------|
|-------------------------------|------------------------|
|--(2)---------2--2--2--2--2--0-|--2-5-2-0---7--5--0--5--|

                ~~~~~
                              |--3---|  |---3---|  |---3---|  |---3---|
    +H           H             E   E  E  E  E    E  E  E    E  E  E    E
|--------------------------|--------------------------------------------|
|-(15)b17------15b17-------|-15p=12----12h15p==12-17p12------12h15p==12-|
|--------------------------|--------15--------------------15------------|
|--------------------------|--------------------------------------------|
|--------------------------|--------------------------------------------|
|--------------------------|--------------------------------------------|
|
|   ~~~~~~~              ~~~~~~~~                                  ~~~~~~
|   Q      E E  E    E E E   +Q         E    E     E    E     E    E
|--------------------------|--------------------------------------------|
|--------------------------|--------------------------------------------|
|--------------------------|--------------------------------------------|
|--------------------------|--------------------------------------------|
|--------------------------|--------------------------------------------|
|---2------2-2--2----2-0-2-|-(2)--------2----2-----2----2-----0----2----|

                                               ~~
   |--3---|  |---3---|  |---3---|  |--3---|
   E   E  E  E  E    E  E  E    E  E  E   E    W
|-------------------------------------------|-------------------|
|-15p=12----12------------------------------|-------------------|
|--------15----15p==12-15p12s==11-14p11s==9-|-12----------------|
|-------------------------------------------|-------------------|
|-------------------------------------------|-------------------|
|-------------------------------------------|-------------------|
|
|~~~~~
| +Q         E    E     E    E     E    E      E E E E E E E E
|-------------------------------------------|-------------------|
|-------------------------------------------|-------------------|
|-------------------------------------------|-------------------|
|-------------------------------------------|-------------------|
|-------------------------------------------|-------------------|
|-(2)--------2----2-----2----2-----2----0---|--2-5-2-0-7-5-0-5--|

    H           E  E E  E    E   E E  E E  E E  E
|-17b19=======17-17---17-|-----17---17---17---17-|
|------------------------|-----------------------|
|------------------------|-----------------------|
|------------------------|-----------------------|
|------------------------|-----------------------|
|------------------------|-----------------------|
|
|  ~~~~~~              ~~~~~~~~                ~~~
|  Q      E E  E  E E  E   +Q     E  E E  E E  E
|------------------------|-----------------------|
|------------------------|-----------------------|
|------------------------|-----------------------|
|------------------------|-----------------------|
|------------------------|-----------------------|
|--2------2-2--2--2-0--2-|-(2)----2--2-2--2-0--2-|

                                      ~~
           |----3----|
   E   E  +E    E    E  E  E  E  E    W
|-----17-(17)rp15------17-15-------|------------------|
|-------------------17-------17-15-|-17---------------|
|----------------------------------|------------------|
|----------------------------------|------------------|
|----------------------------------|------------------|
|----------------------------------|------------------|
|
|~~~~~
| +Q       E      E     E  E  E  E    E E E E E E E E
|----------------------------------|------------------|
|----------------------------------|------------------|
|----------------------------------|------------------|
|----------------------------------|------------------|
|----------------------------------|------------------|
|-(2)------2------2-----2--2--2--0-|--2-5-2-0-7-5-0-5-|

   |--3--|  |---3---|  |---3---|  |---3---|
    E  E  E  E  E    E  E  E    E  E  E    E
|-------------------------------------------|
|---------------------12p11------11---------|
|----------11-12---14---------14----14---12-|
|-11-12-14----------------------------------|
|-------------------------------------------|
|-------------------------------------------|
|
|  ~~                                  ~~~~~~
|  Q        E    E     E    E     E    E
|-------------------------------------------|
|-------------------------------------------|
|-------------------------------------------|
|-------------------------------------------|
|-------------------------------------------|
|--2--------2----2-----2----2-----0----2----|

                                                ~~~~~
   |--3---|  |---3---|  |---3---|  |---3---|
   E   E  E  E  E    E  E  E    E  E  E    E    W                    W
|--------------------------------------------|-15b17---------------|----------------------|
|-----------11-12---14-12-14---15-12-14---15-|---------------------|----------------------|
|-11--12-14----------------------------------|---------------------|----------------------|
|--------------------------------------------|---------------------|----------------------|
|--------------------------------------------|---------------------|----------------------|
|--------------------------------------------|---------------------|----------------------|
|
|~~~~~                                          PM-------------------------|
| +Q         E    E     E    E     E    E       E    E E E E E E E   E E E E  E  E  E  E
|--------------------------------------------|---------------------|----------------------|
|--------------------------------------------|---------------------|----------------------|
|--------------------------------------------|---------------------|----------------------|
|--------------------------------------------|---------------------|----------------------|
|--------------------------------------------|--2----2-2-3-3-3-4-4-|-4-5-5-5-10-10-10-10--|
|-(2)--------2----2-----2----2-----0----2----|--2----2-2-3-3-3-4-4-|-4-5-5-5-10-10-10-10--|


    Gtrs I, II
    PM--|     PM      PM------|  ~~~    PM--|
     E E E  Q  E  Q    E E E E E  Q.     E E E Q  E Q    E E E E E E E E
||------------------|-----------------|---------------|-------------------||
||o-----------------|-----------------|---------------|------------------o||
||------------------|-----------------|---------------|-------------------||
||------------------|-----------------|---------------|-------------------||
||o-----------------|-----------------|---------------|------------------o||
||--0-0-0-10--0-12--|-0-0-0-0-0-[3]---|-0-0-0-7--3-7--|-6-2-0-1-5-1-0-1---||


  PM--|     PM      PM--|     PM      PM--|           PM--|
   E E E  Q  E  Q    E E E  Q  E  Q    E E E Q  E Q    E E E E E E E E
|-----------------|-----------------|---------------|-----------------|
|-----------------|-----------------|---------------|-----------------|
|-----------------|-----------------|---------------|-----------------|
|-----------------|-----------------|---------------|-----------------|
|-------10----12--|-------10----12--|---------------|-------6-5-3-0-3-|
|-0-0-0-10--0-12--|-0-0-0-10--0-12--|-0-0-0-7--3-7--|-0-0-0-6-5-3-0-3-|


  PM--|     PM      PM--|     PM      PM----------------------|       ~
   E E E  Q  E  Q    E E E  Q  E  Q    E E E E E E E E   E E E E E E E E
|-----------------|-----------------|-----------------|-----------------|
|-----------------|-----------------|-----------------|-----------------|
|-----------------|-----------------|-----------------|-----------------|
|-----------------|-----------------|-----------------|-----------------|
|-------10----12--|-------10----12--|-2-2-2-3-3-3-4-4-|-4-5-5-5---------|
|-0-0-0-10--0-12--|-0-0-0-10--0-12--|-2-2-2-3-3-3-4-4-|-4-5-5-5-3-2-0-5-|


     ~~~           ~~~~~~~~           ~~~~~~~~                             ~
     +Q   E E E E E E   +Q   E E E E E E   +Q   E E E E E E   E E E E E E E E
||-------------------|------------------|------------------|------------------|
||o------------------|------------------|------------------|------------------|
||-------------------|------------------|------------------|------------------|
||-------------------|------------------|------------------|------------------|
||o------------------|------------------|------------------|------------------|
||--(5)--2-2-2-3-0-5-|-(5)--2-2-2-3-0-5-|-(5)--2-2-2-2-2-2-|-0-2-2-2-3-2-0-8--|


   ~~~           ~~~~~~~~           ~~~~~~~~                       PM--|
   +Q   E E E E E E   +Q   E E E E E E   +Q   E E E E E E   E E E E E E E E
|------------------|------------------|------------------|-----------------|
|------------------|------------------|------------------|-----------------|
|------------------|------------------|------------------|-----------------|
|------------------|------------------|------------------|---------------7-|
|------------------|------------------|------------------|---------3-2-0-5-|
|-(8)--2-2-2-3-0-5-|-(5)--2-2-2-3-0-5-|-(5)--2-2-2-2-2-2-|-0-2-2-2-3-2-0---|


                  ~~~~~~~~           ~~~~~~~~                             ~
   +Q    E E E E E E   +Q   E E E E E E   +Q   E E E E E E   E E E E E E E E
|-------------------|------------------|------------------|-----------------|
|-------------------|------------------|------------------|-----------------|
|-------------------|------------------|------------------|-----------------|
|-(7)\--------------|------------------|------------------|-----------------|
|-(5)\--------------|------------------|------------------|-----------------|
|-------2-2-2-3-0-5-|-(5)--2-2-2-3-0-5-|-(5)--2-2-2-2-2-2-|-0-2-2-2-3-2-0-3-|


                                                         1.
   ~~~           ~~~~~~~~               PM----------------------|       ~
   +Q   E E E E E E   +Q   E E E E E E   E E E E E E E E   E E E E E E E E
|------------------|------------------|-----------------|------------------||
|------------------|------------------|-----------------|-----------------o||
|------------------|------------------|-----------------|------------------||
|------------------|------------------|-----------------|------------------||
|------------------|------------------|-2-2-2-3-3-3-4-4-|-4-5-5-5---------o||
|-(3)--2-2-2-3-0-3-|-(3)--2-2-2-3-0-5-|-2-2-2-3-3-3-4-4-|-4-5-5-5-3-2-0-5--||


  2.
  PM----|
  E E E E  E  E  E E   +W
|--------------------|---------*|
|--------------------|---------*|
|--------------------|---------*|
|--------------------|---------*|
|-4-5-5-5-10-10-10-2-|-(2)\----*|
|-4-5-5-5-10-10-10-2-|-(2)\----*|
Página 1 / 1

Letras y titulo
Acordes y artista

restablecer los ajustes
OK