Cifra Club

Terror And Hubris In The House Of Frank Polard

Lamb of God

Cifrado: Principal (guitarra y guitarra eléctrica)
tono: E
Tuning: D A D G B e

e|------------------------------|
B|------------------------------|
G|------------------------------|
D|------------------------------|x 12
A|-0--0--0---1p0--4-3--0--1p0---|
D|-0--0--0---1p0--4-3--0--1p0---|
   *  *  *             *

e|-------------------------------------------------------------------------|
B|-------------------------------------------------------------------------|
G|-------------------------------------------------------------------------|
D|------------------------------------8--8--8------7--7--7---------8--8--8-|
A|-4-3----1-0----4-3----1------------12-12-12-----11-11-11--------12-12-12-|
D|-4-3----1-0----4-3----1-----0-0-0-----------0-0----------0-0-0-----------|
                              * * *           * *          * * *

e|-------------------------------------------------------------------------|
B|-------------------------------------------------------------------------|
G|-------------------------------------------------------------------------|
D|------12-12-12----------8--8--8-------7--7--7----------8--8--8------12\--|
A|------16-16-16---------12-12-12------11-11-11---------12-12-12------16\--|
D|-0-0------------0-0-0------------0-0-----------0-0-0------------0-0------|
   * *            * * *            * *           * * *            * *

e|-------------------------------------------------------------------------|
B|-------------------------------------------------------------------------|
G|-------------------------------------------------------------------------|
D|-5-----7p5---7p5-----------------------7p5---7p5---7p5-------------------|
A|---------------------7h9p7h10p7------------------------------------------|
D|---0-0-----0-----0-0-------------0-0-0-----0-----0-----0-5-7-8/9\8-5-0-0-|
     * *     *     * *             * * *     *     *     * * *       * * *

e|-------------------------------------------------------------------------|
B|-------------------------------------------------------------------------|
G|-------------------------------------------------------------------------|
D|-5-----7p5---7p5-----------------------7p5---7p5---7p5-------------------|
A|---------------------7h10p7h9p7------------------------------------------|
D|---0-0-----0-----0-0-------------0-0-0-----0-----0-----0-5-7-8/9\8-5-0-0-|
     * *     *     * *             * * *     *     *     * * *       * * *

e|-------------------------------------------------------------------------|
B|-------------------------------------------------------------------------|
G|-------------------------------------------------------------------------|
D|-5-----7p5---7p5-----------------------7p5---7p5---7p5-------------------|
A|---------------------7h10p7h9p7------------------------------------------|
D|---0-0-----0-----0-0-------------0-0-0-----0-----0-----0-5-7-8/9\8-5-0-0-|
     * *     *     * *             * * *     *     *     * * *       * * *

e|------------------------------------------------|
B|------------------------------------------------|
G|------------------------------------------6-----|
D|------------------------------------------x--7--|x2
A|------------------------------------------5-10--|
D|-000-5~-000-000-5~-000-000-5~-000-000-0-0-------|
   *** P  *** *** P  *** *** P  *** *** * *

e|-------------------------------------------------------------------|
B|-------------------------------------------------------------------|
G|------------------------------------------------------------6------|
D|------------------------------------------------------------x---7--|x2
A|--------6----------------6----------------6-----------------5--10--|
D|-0-0-0--6--0-1-0--0-0-0--6--0-1-0--0-0-0--6--0-1-0--0-0-0-0--------|
   * * *     * * *  * * *     * * *  * * *     * * *  * * * *
e|-------------------------------------------------|
B|-------------------------------------------------|
G|-------------------------------------------------|
D|-------------------------------------------------|x4
A|-------------------------------------------------|
D|-00000000000333333333330000000000000--5~-5~-5~---|
                                        P  P  P

e|-------------------------------------------------------------------|
B|-------------------------------------------------------------------|
G|------------------------------------------------------------6------|
D|------------------------------------------------------------x---7--|x4
A|--------6----------------6----------------6-----------------5--10--|
D|-0-0-0--6--0-1-0--0-0-0--6--0-1-0--0-0-0--6--0-1-0--0-0-0-0--------|
   * * *     * * *  * * *     * * *  * * *     * * *  * * * *

e|-------------------------------------------------|
B|-------------------------------------------------|
G|-------------------------------------------------|
D|-------------------------------------------------|x2
A|-------------------------------------------------|
D|-00000000000333333333330000000000000--5~-5~-5~---|
                                        P  P  P

e|-------------------------------------------------------------------------|
B|-------------------------------------------------------------------------|
G|-------------------------------------------------------------------------|
D|--------8--8--8------7--7--7--------8--8--8-----12-12-12--------8--8--8--|
A|-------12-12-12-----11-11-11-------12-12-12-----16-16-16-------12-12-12--|
D|-0-0-0----------0-0----------0-0-0----------0-0----------0-0-0-----------|
   * * *          * *          * * *          * *          * * *

e|-------------------------------------------------------------------------|
B|-------------------------------------------------------------------------|
G|-------------------------------------------------------------------------|
D|------7--7--7--------8--8--8-----12\-------------------------------------|
A|-----11-11-11-------12-12-12-----16\-------------------------------------|
D|-0-0----------0-0-0----------0-0-----------------------------------------|
   * *          * * *          * *

e|-------------------------------------------------------------------------|
B|-------------------------------------------------------------------------|
G|-------------------------------------------------------------------------|
D|-5-----7p5---7p5-----------------------7p5---7p5---7p5-------------------|
A|---------------------7h9p7h10p7------------------------------------------|
D|---0-0-----0-----0-0-------------0-0-0-----0-----0-----0-5-7-8/9\8-5-0-0-|
     * *     *     * *             * * *     *     *     * * *       * * *

e|-------------------------------------------------------------------------|
B|-------------------------------------------------------------------------|
G|-------------------------------------------------------------------------|
D|-5-----7p5---7p5-----------------------7p5---7p5---7p5-------------------|
A|---------------------7h10p7h9p7------------------------------------------|
D|---0-0-----0-----0-0-------------0-0-0-----0-----0-----0-5-7-8/9\8-5-0-0-|
     * *     *     * *             * * *     *     *     * * *       * * *

e|-------------------------------------------------------------------------|
B|-------------------------------------------------------------------------|
G|-------------------------------------------------------------------------|
D|-5-----7p5---7p5-----------------------7p5---7p5---7p5-------------------|
A|---------------------7h10p7h9p7------------------------------------------|
D|---0-0-----0-----0-0-------------0-0-0-----0-----0-----0-5-7-8/9\8-5-0-0-|
     * *     *     * *             * * *     *     *     * * *       * * *

e|------------------------------------------------|
B|------------------------------------------------|
G|------------------------------------------6-----|
D|------------------------------------------x--7--|x2
A|------------------------------------------5-10--|
D|-000-5~-000-000-5~-000-000-5~-000-000-0-0-------|
   *** P  *** *** P  *** *** P  *** *** * *

e|-------------------------------------------------------------------|
B|-------------------------------------------------------------------|
G|------------------------------------------------------------6------|
D|------------------------------------------------------------x---7--|x2
A|--------6----------------6----------------6-----------------5--10--|
D|-0-0-0--6--0-1p0--0-0-0--6--0-1p0--0-0-0--6--0-1p0--0-0-0-0--------|
   * * *     *      * * *     *      * * *     *      * * * *

e|----------------------------------------------------------|
B|----------------------------------------------------------|
G|-----------------------7----------------------------------|
D|-------6-------6-------6-------6~-------------------------|x4
A|-0-0---5-0-0---5-0-0---5-0-0------------------------------|
D|-0-0-6---0-0-6---0-0-6---0-0-6----------------------------|
   * * *   * * *   * * *   * * * P

e|-------------------|
B|-------------------|
G|-------------------|
D|----------------3~-|x7
A|-------------------|
D|-00-000-00-00-0----|
   ** *** ** ** * P

e|-----------------------------------|
B|-----------------------------------|
G|-----------------------7-----------|
D|-------6-------6-------6-------6~--|
A|-0-0---5-0-0---5-0-0---5-0-0-------|
D|-0-0-6---0-0-6---0-0-6---0-0-6-----|
   * * *   * * *   * * *   * * * P

e|-------|
B|-------|
G|-------|
D|-------|
A|-0-0-0-|
D|-0-0-0-|
   * * *
00:00 / 00:00
Otros videos de esta canción
Repetir
Otros videos de esta canción
Composición de Lamb of God
Colaboración y revisión:
  • Diego Siqueira
23 vistas
    • ½ Tono
    • A
    • Bb
    • B
    • C
    • Db
    • D
    • Eb
    • E
    • F
    • F#
    • G
    • Ab
  • Agregar a la lista

    0 comentarios

    Ver todos los comentarios

    ¿Lograste tocar?

    1 Tocaron 0 Aún no

    ¡Graba un video tocando Terror And Hubris In The House Of Frank Polard y envíanoslo!

    00:00 / 00:00
    OK