Misty Mountain Hop

Led Zeppelin

Composição: Jimmy Page / John Paul Jones / Robert Plant
Tom: D
Riff Principal:
E|---------------------------------
B|---------------------------------
G|---------------------------------
D|------------2-------------2------
A|---------------------------------
E|---5~--3--0---0--5~--3--0---0----

Riff Secundário:
E|----------------------------------------------------
B|----------------------------------------------------
G|-----6--7--5--6--7--5--6--7--5--6--7--5-------------
D|-----5--7--4--5--7--4--5--7--4--5--7--4-------------
A|----------------------------------------------------
E|---------------------------------------------------- (4x)

Passagens:
E|---------2--------------8---7------
B|-------3---3----------8---8---8----
G|-----2-------2------------------7--
D|---0---------------/5--------------
A|-----------------------------------
E|-----------------------------------

E|----------------------------------------
B|----------------------------------------
G|---5/6--4-----5/6--4--------------------
D|----------5h6---------5h6---------------
A|----------------------------------------
E|----------------------------------------

Solo:
E|---------------------------------------------------------------------
B|---------------------------------------------------------------------
G|---\6--4--0h2h4---\6--4--0h2h4---\6--4--0h2h4---\6--4--0h2h4---\11-9-
D|---------------------------------------------------------------------
A|---------------------------------------------------------------------
E|---------------------------------------------------------------------

E|---------------------------------------------------------------------
B|---------------------------------------------------------------------
G|--7-h9---\11--9--7-h9---\11--9--7-h9---\11--9--7-h9---11-p9----------
D|-------------------------------------------------------------12-p9---
A|---------------------------------------------------------------------
E|---------------------------------------------------------------------

E|------10-----------------------------------------------10------------
B|---------10^(12)-10--8---8-10-----------------------------10^(14)-10-
G|-----------------------9-----------------11-p9-----------------------
D|--12---------------------------7^(9)------------12-p9----------------
A|---------------------------------------------------------------------
E|---------------------------------------------------------------------

E|-------------------
B|--8---8-10---------
G|----9-------7^(9)--
D|-------------------
A|-------------------
E|-------------------

E|---7^(8)--7-5-7----------7^(8)--7-5-7----------
B|-----------------5h7p5-----------------5h7p5---
G|-----------------------------------------------
D|-----------------------------------------------
A|-----------------------------------------------
E|-----------------------------------------------

Lyrics

Walkin' in the park just the other day, Baby,
What do you, what do you think I saw?
Crowds of people sittin' on the grass with flowers in their her said,
"Hey, Boy, do you wanna score?"
And you know how it is;
I really don't know what time it was, woh, oh,
So I asked them to stay awhile.

I didn't notice but it got very dark and I was really,
Really out of my mind.
Just policeman stepped up to me and asked us said,
"Please, hey, would we care to all get in line,
Get in line."
Well you know,
They asked us to stay for tea and have some fun,
Oh, oh, he said that his friends would all drop by, ooh.

Why don't you take a good look at yourself and describe what you see,
And Baby, Baby, Baby, do you like it?
There you sit , sitting spare like a book on a shelf rustin'
Ah, not trying to fight it.
You really don't care if they're coming, oh, oh,
I know that it's all a state of mind, ooh.

If you go down in the streets today, Baby, you better,
You better open your eyes.
Folk down there really don't care, really don't care, don't care, really
    don't
Which, which way the pressure lies,
So I've decided what I'm gonn do now.
So I'm packing my bags for the Misty Mountains
Where the spirits go now,
Over the hills where the spirits fly, ooh. (Essa parte da música é muito boa XD)
I really don't know.
Página 1 / 1

Letras y titulo
Acordes y artista

restablecer los ajustes
OK