Cifra Club

Stairway To Heaven

Led Zeppelin

Tablatura: Thomas75s-improvised-solo-part
reproducciones 37
Tono: A
|----------------8-10-7~~~---5-7-8-7h8p7p5-7~-----5-7-8-7h8p7p5-7~------5-7-8-7h8p7p5-7/13-12---10/12\8---8/10\7----|
|---8--10~~~b12-----------------------------------------------------------------------------------------------------|
|--9----------------------------------------------------------------------------------------------------------------|
|-0-----------------------------------------------------------------------------------------------------------------|
|-------------------------------------------------------------------------------------------------------------------|
|-------------------------------------------------------------------------------------------------------------------|

|-------5--------------------------------------------------|
|-----5---8p5---5-----5------------------------------------|
|-7b9---------8---7-8---8-7-5-7-5-7b8r7p5-------------5----|
|-----------------------------------------7~--------5---7--|
|-----------------------------------------------6h7--------|
|----------------------------------------------------------|

|-------------------------------------------------------------------------------------------------|
|----------------------------------------------------------------------------------------10~~~----|
|--------------------------------------------------7---9----7-9-10/12-9h10p9----9-10/12-----------|
|--------------------7h9h10-9~~~-----7-10-9h10p9p7---7---10------------------12-------------------|
|-------5h7h8-7h8h10--------------/8--------------------------------------------------------------|
|-5h7h8-------------------------------------------------------------------------------------------|

|-------12----13----12----------------------|-------12-15-13h15p13p12----12-------15-------------------|
|-10-10----10----10----12~~~----------------|-15b17-------------------15----15b17----17b15p13----------|
|-------------------------------------------|-------------------------------------------------14~~~\---|
|-------------------------------------------|----------------------------------------------------------|
|-------------------------------------------|----------------------------------------------------------|
|-------------------------------------------|----------------------------------------------------------|

|----------5--------------5--------------|--------------------------------|-----------------------------------------------|
|----------------------------------------|--------------------------------|-----------------------------------------------|
|---5-7-8-------8-7-5-7-8---8-7-5--------|--7/9-9-9-9\5-5-5/7-7-4/5\4~~~--|-16/17-17-17-17\14-14-14-14/16-16-12/14\10~~~--|
|-7-------------------------------5/7\3--|--------------------------------|-----------------------------------------------|
|----------------------------------------|--5/7-7-7-7\3-3-3/5-5-2/3\2~~~--|-14/15-15-15-15\12-12-12-12/14-14-10/12\-8~~~--|
|----------------------------------------|--------------------------------|-----------------------------------------------|

|------------------------------------------------------------|
|-3----5--------------8------10-----13-----------------------|
|-5b7--7b9~~----------10b12--12b14--15b17~-------------------|
|------------------------------------------------------------|
|------------------------------------------------------------|
|------------------------------------------------------------|

|----------------------------------------------------|
|-12-----13------------------------------------------|
|-14b16--15b17---------------------------------------|
|----------------------------------------------------|
|----------------------------------------------------|
|----------------------------------------------------|

|----------------------------------------------------|
|-12-----13------------------------------------------|
|-14b16--15b17---------------------------------------|
|----------------------------------------------------|
|----------------------------------------------------|
|----------------------------------------------------|

|----------------------------------------------------|
|-12-----13------------------------------------------|
|-14b16--15b17~--------------------------------------|
|----------------------------------------------------|
|----------------------------------------------------|
|----------------------------------------------------|

|-------------------------------------------------------|
|-15-----13-----12-----15-----13------------------------|
|-17b19--15b17--14b16--17b19--15b17~~~------------------|
|-------------------------------------------------------|
|-------------------------------------------------------|
|-------------------------------------------------------|
Acordes para:
    Colaboración y revision:
    • Vinícius Rasquinha

    0 comentarios

      mostrar más comentarios

      ¿Conseguiste tocar?

      0tocaron0aún no

      ¡Graba un vídeo tocando Stairway To Heaven y envianoslo!

      00:00 / 00:00
      outros vídeos desta música
      repetirqualidadeautomática
      Outro vídeos desta música
        00:00 / 00:00
        automática
        OK