Cifra Club

Stairway To Heaven

Led Zeppelin

Tablatura: Versao-2
reproducciones 135
Tono: C
   Am       E13-/G#  C/G      D/F#
E|-5-----5--7-----7--8-----8--2-----2-------|
B|---5--------5--------5--------3-----------|
G|-----5--------5--------5--------2---------|
D|-7--------6--------5--------4-------------|
A|------------------------------------------|
E|------------------------------------------|
   F7M            G/B Am
E|-0-------0--------------------------------|
B|---1---1---1----0---1--1------------------|
G|-----2-------2--0---2--2------------------|
D|-3--------------0---2--2------------------|
A|----------------2---0--0--0-2/8-7---------|
E|------------------------------------------|
   Am       E13-/G#  C/G      D/F#
E|-5-----5--7-----7--8-----8--2-----2-------|
B|---5--------5--------5--------3-----------|
G|-----5--------5--------5--------2---------|
D|-7--------6--------5--------4-------------|
A|------------------------------------------|
E|------------------------------------------|
   F7M                             G/B Am
E|-0-------0---------------0----------------|
B|---1---1---1-----------1---1------0--1-1--|
G|-----2-------2---2---2-------2----0--2-2--|
D|-3-------------3---3-----------3--0--2-2--|
A|----------------------------------2--0-0--|
E|------------------------------------------|
   C             D                F7M
E|-----------0---2-------2--------0-------0-----------|
B|-----------------3---3---3--------1---1---1---------|
G|---------0---------2-------2--------2-------2-------|
D|-------2-------0-------------0--3-------------0-----|
A|-0-2-3----------------------------------------------|
E|----------------------------------------------------|
    Am
E|---------|
B|-0h1-----|
G|-----2---|
D|---------|
A|-0-------|
E|---------|
    C                    G               D4  D
E|-------------0--------3-------3-------3p2-2-2-------|
B|-----1---------1--------0---0---0-----3---3-3-------|
G|-------0---0-----0--------0-------0---2---2-2-------|
D|---------2---------2----------------0-0---0-0-------|
A|-0-2-3----------------------------------------------|
E|----------------------3-----------------------------|
              
   C             D                F7M

E|-----------0---2-------2--------0-------0-----------|
B|-----------------3---3---3--------1---1---1---------|
G|---------0---------2-------2--------2-------2-------|
D|-------2-------0-------------0--3-------------0-----|
A|-0-2-3----------------------------------------------|
E|----------------------------------------------------|
    Am
E|---------|
B|-0h1-----|
G|-----2---|
D|---------|
A|-0-------|
E|---------|

    C                      D                 F7M
E|---------------0--------------2-----------0-0-0-----|
B|-----1-------1---1----------3---3---------1-1-1-----|
G|-------0---0-------0------2-------2-------2-2-2-----|
D|---------2-----------2--0-----------0-----3-3-3-----|
A|-0-2-3----------------------------------------------|
E|----------------------------------------------------|
Acordes para:
    Colaboración y revision:
    • Guilherme Espíndola

    0 comentarios

      mostrar más comentarios

      ¿Conseguiste tocar?

      0tocaron0aún no

      ¡Graba un vídeo tocando Stairway To Heaven y envianoslo!

      00:00 / 00:00
      outros vídeos desta música
      repetirqualidadeautomática
      Outro vídeos desta música
        00:00 / 00:00
        automática
        OK