Hoje Pensei Em Você

Lipstick

tono: F#
[Lembre-se dos Bicordes!]

INTRO:
                           3x                          1x
e|---------------------------|---------------------------|
B|---------------------------|---------------------------|
G|--------------4------------|--------------2------------|
D|--------6--------6-----6---|--------4--------4-----4---|
A|--4--4-----4--------4------|--2--2-----2--------2------|
E|----------(5)------(5)-----|----------(2)------(2)-----|
( ) = Acho que são notas de BAIXO. Mas fica legal se no violão tocá-las.

[INTRO 2x]
[Início do vocal. Continue na INTRO ou faça esses acordes:]

 Db  A    Db A      Db  A        B
 Ontem me via  sem ter mais ninguém
F#  Db A     Db A  Db  A   B
 Sentia  que tudo  podia ser
 F#         Db A       Db A    Db A   B
 Não mais escuro e sem medo de encontrar
      F#        Db    A      Db A  Db A
 Quem pudesse mudar o meu destino....

F#      A        B
Hoje pensei em você
                      F#
Hoje que me sinto tão incapaz
   A          B
Você tranqüilizou meu ser
   F#         A           B
Sentir tua presença me conforta de alguma forma
F#        A        B
Mesmo tão longe te tenho aqui

[INTRO 1x]
[Continue na INTRO ou faça esses acordes:]

     Db   A    Db A        Db A  B
Tudo isso é difícil de entender
    F#           Db A      Db A        Db A  B A
Mas teus passos certos e errados vou seguir

Db            E Db 
O tempo se passou
    E  Db                    B
Não parei pra contar as horas
Db              E  Db               E  Db  B
Mas ainda lembro o dia em que você se foi!

F#      A        B
Hoje pensei em você
                      F#
Hoje que me sinto tão incapaz
   A          B
Você tranqüilizou meu ser
   F#         A           B
Sentir tua presença me conforta de alguma forma
F#        A        B
Mesmo tão longe te tenho aqui

(Db A G#)4x

SOLO:
    Db  A  G#   Db      A     G#   Db  A     G#   Db     A     G#  Db \
e|--------------------------------/9~~------------9~~-9--------------------|
B|-------------------------------------9b10r-9-----------9b10r-9-----------|
G|--------------/6~~--6--------------------------------------------6~~\-\--|
D|----------------------6b10r-6------------------------------------6~~\-\--|
A|--4~~--------------------------------------------------------------------|
E|------5--4~~-------------------------------------------------------------|

[INTRO 1x]
[Continue na INTRO ou faça esses acordes:]

Db A   Db A    Db A  B
Hoje pensei em você
 F#              Db A   Db A     Db A  B A
Hoje você me recupera e me faz sorrir

F#      A        B
Hoje pensei em você
                      F#
Hoje que me sinto tão incapaz
   A          B
Você tranqüilizou meu ser
   F#         A           B
Sentir tua presença me conforta de alguma forma
F#        A        B
Mesmo tão longe te tenho aqui
F#  A   B
     Te tenho aqui
F#  A   B          F#
        Tenho aqui
Página 1 / 1

Letras y titulo
Acordes y artista

restablecer los ajustes
OK