El dinero no es todo

Los Auténticos Decadentes

Composición de: Mariano Franceschelli
tono: Bm
intro

guitarra
E|-----10----9--------------------------| e|------------------------------------|
B|--10----10---10-12-12----10-10-10-----| B|---10-12-12-----------10-10---------|
G|---------------------9-----------9-7--| x2    G|------------12-9--9-9-------9-7-7---| x2
D|--------------------------------------| D|------------------------------------|
A|--------------------------------------| A|------------------------------------|
E|--------------------------------------| E|------------------------------------|

trompetas
E|--10-------------------9-------------------10-------------------9-----------------10----10-10-10--|
B|-----12-----------10-----12-----------10------12-----------10-----12-----------10-----------------|
G|---------12-12-12------------12-12-12-------------12-12-12------------12-12-12--------------------|
D|--------------------------------------------------------------------------------------------------|
A|--------------------------------------------------------------------------------------------------|
E|--------------------------------------------------------------------------------------------------|

La heladera esta vacia
las facturas ya vencidas
en el baño los caños rotos
la vecina me dice que soy un croto

No me fía el almacén
se enojo Doña Maria
hice un mango el otro día
pero lo gaste en bebida

                  Estoy                sin un                pero no
                  pelado               centavo               limado
E|---------------------------------------------0-0-0---0-2-----------0-0-0---0---------2-2-2--|
B|--2-2-2-0-2-3----------2-2-2-0-2-3-----------------3-----3---------------3---3-3-3-3--------|
G|--------------2--------------------2--------------------------------------------------------|
D|--------------------------------------------------------------------------------------------|
A|--------------------------------------------------------------------------------------------|
E|--------------------------------------------------------------------------------------------|

Que vas a hacer, no aprendes mas. La que ganas, la patinas
Que vas a hacer, no aprendes mas. La que ganas, te la gastas!

E|----------------------------------------------------------------------------------|
B|-10-10-10-12-12------10-10-10-12-12--------10-10-10-12-12------10-10-10-12-7---7--|
G|----------------9-9-----------------11-11-----------------9-9----------------7----|
D|----------------------------------------------------------------------------------|
A|----------------------------------------------------------------------------------|
E|----------------------------------------------------------------------------------|

E|------------9---7-7-7-9-------7---5-5-5-7-------9---7-7-7-9-------7---------------|
B|------5--8--------------3--7--------------5--8--------------3--7------------------|
G|----------------------------------------------------------------------------------|
D|----------------------------------------------------------------------------------|
A|----------------------------------------------------------------------------------|
E|----------------------------------------------------------------------------------|

Con el diario en la mano sali a buscar un trabajo
No encuentro un carajo, manguie una cerveza
Me quedo en la esquina tomando sol

De quinielero, no! De boquetero,no!
De motoquero, no! De curandero, no!
De cana, no! De streaper, no!
De chorro, no! Travesti, no!
Cura, no! Fiolo, no! noooooo!


PUENTE
E|----------0-0----------------------------------------------0-0----------------|
B|------2-3----------2-0--3-------2-2-2-0-2-3------------2-3----------2-0--3----|
G|--2-4----------2-4--------2-----------------2------2-4----------2-4--------2--|
D|------------------------------------------------------------------------------|
A|------------------------------------------------------------------------------|
E|------------------------------------------------------------------------------|


                  Estoy                sin un                pero no
                  pelado               centavo               limado
E|---------------------------------------------0-0-0---0-2-----------0-0-0---0---------2-2-2--|
B|--2-2-2-0-2-3----------2-2-2-0-2-3-----------------3-----3---------------3---3-3-3-3--------|
G|--------------2--------------------2--------------------------------------------------------|
D|--------------------------------------------------------------------------------------------|
A|--------------------------------------------------------------------------------------------|
E|--------------------------------------------------------------------------------------------|


          Em
Dios bendiga el juanete en la pata de mi abuela
      Bm                                               A
que con sabiduría me decía que en la vida hay que aceptar

El dinero no es todo, pero como ayuda
El dinero no es todo, hay! como ayuda (x2)

Con dinero compraria un viaje al congo pa´ mi suegra
el tapizado del torino, y los postizos de la abuela

El dinero no es todo, pero como ayuda
El dinero no es todo, hay! como ayuda

Con dinero o sin dinero hago siempre lo que quiero
ay que bueno que sería ganarse la lotería

El dinero no es todo, pero como ayuda
El dinero no es todo, hay! como ayuda (x2)

E|----------|
|FDE  OUT|  Quiero dinero, quiero dinero
¯¯¯¯¯¯¯¯¯¯  ya se no es todo, pero igual quiero dinero
Página 1 / 1

Letras y titulo
Acordes y artista

restablecer los ajustes
OK