Cifra Club

El pajaro vió el cielo y se voló

Los Auténticos Decadentes

Cifrado: Principal (guitarra y guitarra eléctrica)
tono: C
INTRO:

(Trompeta)

   C               Em        F                   G  
E|----------------0-1-0-------1---3-1-0-3-1-0---------0-0--0h1p0----|
B|--1-------0-1-3-----------------------------3-1-0--------------3--|
G|------0-2---------------------------------------------------------|
D|------------------------------------------------------------------|
A|------------------------------------------------------------------|
E|------------------------------------------------------------------|

(Guitarra)

   Am                                           G  
E|--12-12-12-12-12-12-13s15-13-12----------------------|
B|--------------------------------15-13-12-13-15-12----|
G|-----------------------------------------------------|

         F                                        G  
E|------10s12-10----------10-10s12-10----------10------|
B|--12-----------13-12-13-------------13-12-13-----12--|
G|-----------------------------------------------------|


 C                                          G  
Miro hacia atrás como el viento se va pero vuelve,
 C                                          G  
veo que el sol me sonríe y el pasto es más verde.


PD-E STRIBILLO:

Am                Em 
Desde que todo terminó,
Am                    Em 
me siento cada vez mejor;
F                        Em 
fue tanto el tiempo que pasó (el fuego se apagó)
F                        G  
que un día el techo se rajó.

ESTRIBILLO:

                                C 
Y el pájaro vió el cielo y se voló,
                         Am 
te dí mi corazón y lo perdiste,
C                             Am 
me lastimaste cuando me mentiste.
             F 
Y arriba el cielo (que lindo el cielo),
           Am        Em      C 
y abajo el mar (que lindo el mar),
        F            G          C        G  
y los arcángeles me vienen a buscar.


INTER:

(Trompeta) = INTRO

(Guitarra)

E|--12h13p12-12h13p12-12h13p12----------12-13-15-17s19-----|
B|-----------------------------15-13-15----------------15--|
G|---------------------------------------------------------|

E|------------10s12-10----------10-10s12-10----------10-------------------|
B|--13-12-13-----------13-12-13-------------13-12-13-----12----------[12]-|
G|--------------------------------------------------------------[12]------| ***


No puedo creer como pude ser tan inocente,
me enamoré y me enroscaste como una serpiente.

PD-E STRIBILLO

ESTRIBILLO

FINAL:

(Trompeta) = INTRO

(Guitarra)

E|-----15(17)-15(17)----15(17)-----------17(19)-----|
B|--17---------------17-------------------------17--|
G|--------------------------------------------------|

E|------------------------------12-----------------------|
B|--15-15-15-15-13-13-13-13-15-----12--------------[12]--|
G|--------------------------------------------[12]-------| ***


ACORDES UTILIZAC S:

   C     Em    F     G     Am 
E|--0--|--0--|--1--|--3--|--0--|
B|--1--|--0--|--1--|--0--|--1--|
G|--0--|--0--|--2--|--0--|--2--|
D|--2--|--2--|--3--|--0--|--2--|
A|--3--|--2--|--3--|--2--|--0--|
E|--x--|--0--|--1--|--3--|--x--|
Composición de Jorge Serrano
155 vistas
    • ½ Tono
    • A
    • Bb
    • B
    • C
    • Db
    • D
    • Eb
    • E
    • F
    • F#
    • G
    • Ab
  • Agregar a la lista

    0 comentarios

    Ver todos los comentarios

    ¿Lograste tocar?

    0 Tocaron 0 Aún no

    ¡Graba un video tocando El pajaro vió el cielo y se voló y envíanoslo!

    00:00 / 00:00
    Outros vídeos desta música
    Repetir Calidad Automático
    Outros vídeos desta música
    00:00 / 00:00
    Automático
    OK