Cifra Club

Loco (Tu Forma de Ser)

Los Auténticos Decadentes

Cifrado: Versão 6 (guitarra y guitarra eléctrica)
tono: A
                    A
E|---------------------------------------------------------|
B|---------------------------------------------------------|
G|---------2--4---4/6| ---4/6---4/6--2-----2-----------|
D|-----2h4----------------------------------4-----4--------|
A|---------------------------------------------------------|
E|---------------------------------------------------------|

               C#m                                Bm
E|---------------------------------------------------------|
B|------------------------------------------------5----7---|
G|---2--------------------------------------2--4h6---6-----|
D|------4--2-----4--2-----4--2--------2--4-----------------|
A|------------4--------4----------4------------------------|
E|---------------------------------------------------------|

                      E
E|-----------------------7-----7-----7-----7--7/9-7--5h7-5-|
B|---------------------5-----5-----5-----5-----------------|
G|----4h6--6--6--4---4-----4-----4-----4-------------------|
D|---------------------------------------------------------|
A|---------------------------------------------------------|
E|---------------------------------------------------------|


(luego entran el sax)

       A                           C#m
E|----5--5--5--7-5-5---9-9--7------7--9--9--9--12--10--9---|
B|-----------------------------10--------------------------|
G|---------------------------------------------------------|
D|---------------------------------------------------------|
A|---------------------------------------------------------|
E|---------------------------------------------------------|

              Bm                        E
E|---9-10-9--7-7--7--9--7----9-10-9--7-7--7--9--10--10/12--|
B|---------------------------------------------------------|
G|---------------------------------------------------------|
D|---------------------------------------------------------|
A|---------------------------------------------------------|
E|---------------------------------------------------------|


   A
Te vi llegar del brazo de un amigo
          C#m
cuando entraste al bar

te caste al piso
       Bm
me   tiraste mi vino

me tiraste un sifOn
     E
estallaron los vidrios de tu corazOn

    A
Te vi bailar brillando por tu ausencia
        C#m
sin sentir piedad

chocando con las mesas
       Bm
te burlaste de todos
te reste de mi
       E
tus amigos escaparon de vos


                A
A mi me volvio loco tu forma de ser
                C#m
a mi me volvio loco tu forma de ser
      Bm
tu egoismo en tu soledad
        E
son estrellas en la noche de la mediocridad

me
A mi me volvio...
son joyas de la mediocridad

          A                                C#m
E|-9--9--9----7-7-7---5-5-5---5--7--5--7--12--12--12-14--12-|
B|-10-10-10---9-9-9---7-7-7---7--9--7--9--14--14--14-14--14-|
G|----------------------------------------------------------|
D|----------------------------------------------------------|
A|----------------------------------------------------------|
E|----------------------------------------------------------|

              Bm                        E
E|---12h14--11h13-10--10--10--9---7----7-7-7-5-4---5-5-5--5-5-7|
B|---14-----13----12--12--12--10--9----9-9-9-7-5---4-4-7--7-7-9|
G|-------------------------------------------------------------|
D|-------------------------------------------------------------|
A|-------------------------------------------------------------|
E|-------------------------------------------------------------|



Viniste a mi
tomaste de mi copa
me sonreste asi
nadando en tu delicia
no sabia que hacer
te trate de dejar
me pegaste un sopapo y te pusiste a llorar

Me volvio loco tu forma de ser...

          A                                C#m
E|-9--9--9----7-7-7---5-5-5---5--7--5--7--12-12-12-12-12-14--12-|
B|-10-10-10---9-9-9---7-7-7---7--9--7--9--14-14-14-14-14-14--14-|
G|--------------------------------------------------------------|
D|--------------------------------------------------------------|
A|--------------------------------------------------------------|
E|--------------------------------------------------------------|

              Bm                        E
E|---12h14--11h13-10--10--10--9---7----7-7-7-5-4---5-5-5--5-5-7|
B|---14-----13----12--12--12--10--9----9-9-9-7-5---4-4-7--7-7-9|
G|-------------------------------------------------------------|
D|-------------------------------------------------------------|
A|-------------------------------------------------------------|
E|-------------------------------------------------------------|

                  A                          C#m
E|----------------------------------5--4-----------------------|
B|---------------------------------------5--7--7p5-5~~---------|
G|-------2-4--6^-6/4-4-----6^*-7-------------------------------|
D|---2h4---------------7---------------------------------------|
A|-------------------------------------------------------------|
E|-------------------------------------------------------------|

 ^*:=estirar y volver el mismo sonido incial.



              Bm                  E
E|-------------------------------------------------------------|
B|-------5-----------------------------------------------------|
G|---4/6---6-6/7-7-7-6-4---------------------------------------|
D|-------------------------------------------------------------|
A|-------------------------------/7| 7-7---7/9-9-9--9/11--------|
E|-------------------------------------------------------------|
Composición de Jorge Serrano
6 vistas
    • ½ Tono
    • A
    • Bb
    • B
    • C
    • Db
    • D
    • Eb
    • E
    • F
    • F#
    • G
    • Ab
  • Agregar a la lista

    0 comentarios

    Ver todos los comentarios

    ¿Lograste tocar?

    0 Tocaron 0 Aún no

    ¡Graba un video tocando Loco (Tu Forma de Ser) y envíanoslo!

    00:00 / 00:00
    Outros vídeos desta música
    Repetir Calidad Automático
    Outros vídeos desta música
    00:00 / 00:00
    Automático
    OK