Amiga Mía

Los Prisioneros

Composición de: Claudio Narea / J. Gonzalez / Miguel Tapia
tono: Bm
Intro: C#m -A -A -A -C#m -F#  

Como otra piel como otro sabor........

E|------4-------6--------8----1-2-------6|
B|--4-----2---3---6----7---4------3-----|
G|----------------------------------5---|
D|--------------------------------------|
A|--------------------------------------|
E|--------------------------------------|

Como puedo sufrir............


E|------4-------6--------8----1-2-------6|
B|--4-----2---3---6----7---4------3-----|
G|----------------------------------5---|
D|--------------------------------------|
A|--------------------------------------|
E|--------------------------------------|
Página 1 / 1

Letras y titulo
Acordes y artista

restablecer los ajustes
OK