Mentalidad Televisiva

Los Prisioneros

Composición de: Jorge Gonzalez
tono: A
E|----------------------4-5-4-----/-------------------------/|
B|----------------5-7---------7-5-/----------------5-7----7-/|
G|------6-7-6-4-6-----6-----------/------6-7-6-4-6-----6--6-/|
D|--7-7---------------------------/--7-7--------------------/|
A|--------------------------------/-------------------------/|
E|--------------------------------/-------------------------/|

E|------------------------------------/---------------------|
B|-12-12--10-9-7-10---12-12--10-9-7-5-/---------------------|
G|------------------------------------/---------------------|
D|------------------------------------/---------------------|
A|------------------------------------/---------------------|
E|------------------------------------/---------------------|

E|-------------------------------------------------------/-|
B|----------------5-7------------------------------------/-|
G|------6-7-6-4-6-----6--7-5-7-5-7-5-7-5-7-5-7-5-7-5-9---/-|
D|--7-7--------------------------------------------------/-|
A|-------------------------------------------------------/-|
E|-------------------------------------------------------/-|

E|--------------------------------|
B|--12-10-12-10-9-10-9-10---------|
G|--------------------------------|
D|--------------------------------|
A|--------------------------------|
E|--------------------------------|

E|--12-10-12-10-------------------------------------7-7-7-7-7--/|
B|--------------12-10--12-10-9-10-9-7-9-7-------7-9--9-9-9-9---/|
G|----------------------------------------6-7-9----------------/|
D|-------------------------------------------------------------/|
A|-------------------------------------------------------------/|
E|-------------------------------------------------------------/|
Página 1 / 1

Letras y titulo
Acordes y artista

restablecer los ajustes
OK