Hey hey hey

Los Tres

tono: A
   E                 Riff1
E|---------------------|-------------|
B|---------------------|-----3-------|
G|------1-1-1-1-1-1----|-2/4---4-(0)-|
D|------2-2-2-2-2-2----|-------------|
A|------2-2-2-2-2-2----|-------------|
E|-(0)--0-0-0-3-0-0----|-------------|

Riff2
E|------------|
B|-----3-5-5~-|
G|-2/4--------|
D|------------|
A|------------|
E|------------|



Riff1 E Riff1 E Riff1

E                                      E    Riff1
tráeme la escopeta porque le voy a disparar
E                                      E    Riff1
al amor de mi vida que me acaba de traicionar
E                                                E    Riff1
se arrancó con un hombre que ahora es su nuevo galán
E                                         E
la dejó como a un perro y ahora tendrá que pagar.

C
el cielo está nublado
     D          E   Riff1
y enojado como yo
E
hey hey hey
C                                 D      E   Riff1
eso es lo que pasa por creer y por amar
E
hey hey hey
C                          D     E  Riff1
tengo mil balas y las voy a disparar.

  E   Riff1

la tierra está mojada con lágrimas que corren por mi ser
el pavimento rojo con la sangre que voy a hacer correr
le dije mil veces que no me abandonara
ahora su destino lo decido yo

el cielo está enojado y nublado como yo
hey hey hey
eso es lo que pasa por creer y por amar
hey hey hey
la fe me dio la espalda y el amor no existe más.
E
aléjate de mi
E
aléjate de mi
E            Riff2
despídete de mi
E            Riff2
olvídate de mi

G  O

E|------------------------------------|-----------------------------|
B|-----3-5-------3-5-----3-5----------|------3-5-----3-5-5~---------|
G|-2/4-------2/4-----2/4-----2-0------|--2/4-----2/4----------------| x2
D|--------------------------------2-0-|-----------------------------|
A|------------------------------------|-----------------------------|
E|------------------------------------|-----------------------------|

E|---------------------------------------|
B|---5-5-5-5-5/7-7-7-8-7-5~--5-5-3-5-----|
G|---------------------------------------|
D|---------------------------------------|
A|---------------------------------------|
E|---------------------------------------|

E|-----------------------------------|
B|--5/8-8-8-8-8/10-8-7-8-7-5--5-3-5--|
G|-----------------------------------|
D|-----------------------------------|
A|-----------------------------------|
E|-----------------------------------|

hey hey hey
a medio morir saltando es como estoy
hey hey hey
cuando uno esta tan raro que no se ni quien soy


Riff3
E|----------------------|
B|----------------------|
G|----------------------|
D|-7/9-9-7-7-6~-6-7-----|
A|----------------------|
E|----------------------|
Riff3
hey hey hey
hey hey hey
hey hey hey
hey hey hey
hey hey hey
hey hey hey
hey hey hey
hey hey hey
hey hey hey
Riff1
Página 1 / 1

Letras y titulo
Acordes y artista

restablecer los ajustes
OK