Wasted Solo

LP

tono: G
Solo (all after the other, just hard to tab on the same |---| thing)
E|--------------------------------------------------------------------|
B|--------------------------------------------------------------------|
G|---11-12-11-14-14-11-12-11-9-7-2------------------------------------|
D|--------------------------------------------------------------------|
A|--------------------------------------------------------------------|
E|--------------------------------------------------------------------|

E|--------------------------------------------------------------------|
B|--------------------------------------------------------------------|
G|-------2h4-7-7-9-9-11-11-11-14h16-14h16-----------------------------|
D|--------------------------------------------------------------------|
A|--------------------------------------------------------------------|
E|--------------------------------------------------------------------|

E|--------------------------------------------------------------------|
B|--------------------------------------------------15-15-15-15-------|
G|--11-12-11-14-14-11-12-11--11-12-11-14-14-11-12-11------------------|
D|--------------------------------------------------------------------|
A|--------------------------------------------------------------------|
E|--------------------------------------------------------------------|

E|---14-15-14-12-10---------------------------------------------------|
B|--------------------------------------------------------------------|
G|--------------------------------------------------------------------|
D|--------------------------------------------------------------------|
A|--------------------------------------------------------------------|
E|--------------------------------------------------------------------|

Página 1 / 1

Letras y titulo
Acordes y artista

restablecer los ajustes
OK