Seguir Viviendo Sin Tu Amor

Luis Alberto Spinetta

Composición de: Luis Alberto Spinetta
tono: D Afinación: E A D G B E
[Intro] D  Bm  G  A
        D  Bm  G  A

[Tab - Intro]


E|-----9--10-------------|
B|--7---------10--8--10--|
G|-----------------------|
D|-----------------------|
A|-----------------------|
E|-----------------------|

E|-----9--10------------|
B|--7---------10--8--7--|
G|----------------------|
D|----------------------|
A|----------------------|
E|----------------------|

E|-----9--10-------------|
B|--7---------10--8--12--|
G|-----------------------|
D|-----------------------|
A|-----------------------|
E|-----------------------|

E|----------------------|
B|--7--8--10--8--7--10--|
G|----------------------|
D|----------------------|
A|----------------------|
E|----------------------|

[Primeira Parte]

                     D
Si a tu corazón yo llego igual
                    Bm
Todo siempre se podrá elegir
                     G
No me escribas la pared
                      A
Sólo quiero estar entre tu piel

[Pré-Refrão]

                D
Y si acaso no brillara el Sol
        Bm
Y quedara yo atrapado aquí
               G
No vería la razón
                    A
De seguir viviendo sin tu amor

[Refrão]

F#
   Y hoy que enloquecido vuelvo
    Bm
Buscando tu querer
   Em                   F#
No queda más que viento
     G                  A
No queda más que viento

[Pré-Refrão]

                D
Y si acaso no brillara el Sol
        Bm
Y quedara yo atrapado aquí
               G
No vería la razón
                    A
De seguir viviendo sin tu amor

[Solo] D  Bm  G  A
       D  Bm  G  A

[Refrão]

F#
   Y hoy que enloquecido vuelvo
    Bm
Buscando tu querer
   Em                   F#
No queda más que viento
     G                  A
No queda más que viento

[Pré-Refrão]

                D
Y si acaso no brillara el Sol
        Bm
Y quedara yo atrapado aquí
               G
No vería la razón
                    A
De seguir viviendo sin tu amor

[Solo] D  Bm  G  A
       D  Bm  G  A

[Tab - Solo]

E|-----9--10-------------|
B|--7---------10--8--10--|
G|-----------------------|
D|-----------------------|
A|-----------------------|
E|-----------------------|

E|-----9--10--10--9--10--9--10--14--|
B|--7-------------------------------|
G|----------------------------------|
D|----------------------------------|
A|----------------------------------|
E|----------------------------------|

E|-----9--10-------------|
B|--7---------10--8--12--|
G|-----------------------|
D|-----------------------|
A|-----------------------|
E|-----------------------|

E|-------------------------------------------------|
B|--7--8--10--8--7--10--8--8--7--7--5--5--3--3--2--|
G|-------------------------------------------------|
D|-------------------------------------------------|
A|-------------------------------------------------|
E|-------------------------------------------------|

[Final]

G
No vería la razón
                    A
De seguir viviendo sin tu amor
Página 1 / 1

Letras y titulo
Acordes y artista

restablecer los ajustes
OK