Ready And Waiting To Fall

Mae

Composición de: Mae
tono: F#
Tabbed by: Andrew Chiesa
Email: C*

Tuning: Standard

These are most of the parts of the song. I'm really impatient right now so you can put
all together. The Post chorus thing, which is also used in the intro, verse, etc. is
with two guitars, which I tabbed out at the bottom, or you can play it alone like I have 
all the other parts.

This is just the part for one guitar.

INTRO
=========

e|-------------------------------------------------------------------------|
B|-------------------------------------------------------------------------|
G|66666666-88888888-10/11/10-11-10-11-13------11111111--------11111111-----|
D|----------------------------------------------------11---11---------11-11|
A|44444444-66666666--8/-9/-8--9--8--9-11-------9-9-9-9---------9-9-9-9-----|
E|-----------------------------------------------------9----9----------9--9|

Verse
=========

e|-------------------------------------------------------------------------|
B|-------------------------------------------------------------------------|
G|8-6-8-6-6--11-6-8-11-10--11-10-11-----------11111111--------11111111-----|
D|----------------------------------11-1111-----------11---11---------11-11|
A|6-4-6-4-4---9-4-6--9--8---9--8--9------------9-9-9-9---------9-9-9-9-----|
E|-----------------------------------9--9-9------------9----9----------9--9|

Prechorus (This probably isnt right but it sounds good)
==========

e|-------------------------------------------------------------------------|
B|--------6----------6-----------------------------------------------------|
G|--6------6---6------6----------------------------------------------------|
D|---6----------6----------------------------------------------------------|
A|4-----4----4-----4-------------------------------------------------------|
E|-------------------------------------------------------------------------|

Chorus
==========

e|-------------------------------------------------------------------------|
B|-------------------------------------------------------------------------|
G|66666666-88888888-10/11/10-11-10-11-13131313-6666------------------------|
D|---------------------------------------------------99-1111-66------------|
A|44444444-66666666--8/-9/-8--9--8--9-11111111-4444------------------------|
E|---------------------------------------------------77--9-9-44------------|

Post Chorus
===========

e|-------------------------------------------------------------------------|
B|-------------------------------------------------------------------------|
G|11111111--------11111111------10b---11111111--------11111111-------10b---|
D|---------11---11---------11-11--------------11---11---------11-11--------|
A|-9-9-9-9---------9-9-9-9--------8b---9-9-9-9---------9-9-9-9--------8b---|
E|----------9----9----------9--9---------------9----9----------9--9--------|

=================================================
Two Part Riff (used in Post Chorus, Intro, Verse)
=================================================

Guitar One
===========

e|-------------------------------------------------------------------------|
B|-------------------------------------------------------------------------|
G|11111111-10---1011111111-10-10-10b----11111111-10---1011111111-10-10-10b-|
D|-------------------------------------------------------------------------|
A|-9-9-9-9--8----8-9-9-9-9--8--8--8b-----9-9-9-9--8----8-9-9-9-9--8--8--8b-|
E|-------------------------------------------------------------------------|

Guitar Two
===========

e|-------------------------------------------------------------------------|
B|-------------------------------------------------------------------------|
G|-8-8-8-8--6----6-8-8-8-8--6--6--6b----8-8-8-8--6----6-8-8-8-8--6--6------|
D|-------------------------------------------------------------------------|
A|-6-6-6-6--4----4-6-6-6-6--4--4--4b----6-6-6-6--4----4-6-6-6-6--4--4------|
E|-------------------------------------------------------------------------|

| /  slide up
| \  slide down
| h  hammer-on
| p  pull-off
| ~  vibrato
| +  harmonic
| x  Mute note
============================================================================
Página 1 / 1

Letras y titulo
Acordes y artista

restablecer los ajustes
OK