Start Talking Love

Magnum

Composición de: Tony Clarkin
tono: E

Not much soul behind this one - it's a fast piece/release :) Was in a bad mood....

********************************************************************************


  x           ~    x         ~
|------------------------------------------------------|
|------------------------------------------------------|
|------------------------------------4-----------------|
|-2-4-4p2---4-2----2-4-4p2---4--4-/6---6-/4p2-4p2-2----|
|-2-------2--------0-------2----------------------2----|
|-0--------------0--------------------------------0----|

 Intro part....

 (x = let lose string ring as long as possible)

  ~ stands for vibrato


|---------0---------0-------0----|
|-----------0---------0-----0----|
|----4--------2---------2---1----|
|-2--4----------------------2----|
|-2--2--0-------0-2--------------|
|-0------------------------------|

 Just another lonely night part....

|-------------------------------------------------------------------|
|-------------------------------------------------------------------|
|----------------------------------2---4--6---4---6---4--2--4-------|
|--------------------------0-2-----2---4--6-0-4-0-6-0-4--2--4--2----|
|-2-2-2-2-2-2-2-2-2-2-2-2--0-2-0-0-0---2----0---0---0----0--2--2----|
|-0-0-0-0-0-0-0-0-0-0-0-0--0-0-0-0-----------------------------0----|

 Never gonna give you up part....

|--------------------------------------|
|--------------------------------------|
|----4-----6-----4-----6-----4---------|
|-2--4--2--6--2--4--2--6--2--4----2----|
|-0--2--2--4--0--2--2--4--0--2----2----|
|-------0-----------0-------------0----|

 When it start talkin love part.... all chords x8 times aprox

  x           ~    x         ~
|------------------------------------------------------|
|------------------------------------------------------|
|------------------------------------4-----------------|
|-2-4-4p2---4-2----2-4-4p2---4--4-/6---6-/4p2-4p2-2----|
|-2-------2--------0-------2----------------------2----|
|-0--------------0--------------------------------0----|

 (x = let lose string ring as long as possible)

|---------0---------0-------0----|
|-----------0---------0-----0----|
|----4--------2---------2---1----|
|-2--4----------------------2----|
|-2--2--0-------0-2--------------|
|-0------------------------------|

 and on and on.... just slightly different.

 Request for songs goes to *
Página 1 / 1

Letras y titulo
Acordes y artista

restablecer los ajustes
OK