Cifra Club

El Que Quiera Entender

Mägo De Oz

Cifrado: Principal (guitarra y guitarra eléctrica)
tono: C
Date: Wed, 28 Jun 2000 07:15:23 -0400
From: "Xavier Jiménez Blanco" 
Subject: m/mago_de_oz/*


Tabulado por Javier Jiménez Blanco (Sant Andreu de la Barca, Barcelona), 
*, 6/6/2000.

INTRO BARROCA [00:39]:                                          
                                      x3                        
e|--------------------------------------|---------------|
B|-------13--12--10h12p10h12p10h12p10---|---8---6---5---|
G|---12---------------------------------|---------------| x2
D|--------------------------------------|---------------|
A|--------------------------------------|---------------|
E|--------------------------------------|---------------|


INTRO ELÉCTRICA + RITMO DEL VERSO [00:52]:
                          x3            
e|--------------------------|------------------|
B|-------13--12--10--(10)^--|---8^---6^---5^---|
G|---12---------------------|------------------|
D|--------------------------|------------------|
A|--------------------------|------------------|
E|--------------------------|------------------|

e|--------------------------|------------------------------------------------|
B|-------13--12--10--(10)^--|-------13--15--15/17^--15^--13^--12^------------|
G|---12---------------------|---12-------------------------------------------|
D|--------------------------|------------------------------------------------|
A|--------------------------|------------------------------------------------|
E|--------------------------|------------------------------------------------|


VERSO [01:05] x2:

e|--------------------------|------------------------------------------------|
B|--------------------------|------------------------------------------------|
G|---------5-----5----------|---------5-----5-----7--------------------------|
D|---7-----5-----5-----5----|---7-----5-----5-----7--------------------------|
A|---7-----3-----3-----5----|---7-----3-----3-----5--------------------------|
E|---5-----------------3----|---5--------------------------------------------|
     LA    DO    DO    SOL      LA    DO    DO    RE

Cuánto ha ....

Nadé ...


PUENTE [01:30]:

e|---------------------------------------------------------------------------|
B|---------------------------------------------------------------------------|
G|---7---9--10---------------------------------------------------------------|
D|---7---9--10-----10-----12-----10---9---7----------------------------------|
A|---5---7---8-----10-----12-----10---9---7----------------------------------|
E|------------------8-----10------8---7---5----------------------------------|
     RE  MI  FA    DO     RE     DO   SI  LA


e|---------------------------------------------------------------------------|
B|---------------------------------------------------------------------------|
G|---7---9--10---------------------------------------------------------------|
D|---7---9--10-----10-----12-----14------------------------------------------|
A|---5---7---8-----10-----12-----14------------------------------------------|
E|------------------8-----10-----12------------------------------------------|
     RE  MI  FA    DO     RE     MI   

Cuánto me ...


ESTRIBILLO [01:42]:

e|--------------------------|------------------------------------------------|
B|--------------------------|------------------------------------------------|
G|---------------5----------|---------------5-----7--------------------------|
D|---7-----3-----5-----5----|---7-----3-----5-----7--------------------------|
A|---7-----3-----3-----5----|---7-----3-----3-----5--------------------------|
E|---5-----1-----------3----|---5-----1--------------------------------------|
     LA    FA    DO    SOL      LA    FA    DO    RE

Y volveré ...

INTRO [01:55]

TRANSICIÓN [02:08]:

e|---------------------------------------------------------------------------|
B|---------------------------------------------------------------------------|
G|--------------------5---5--------5---5-------------------------------------|
D|-------7---7------5---5--------5---5----------5---5------------------------|
A|-----7---7------3------------3--------------5---5--------------------------|
E|---5--------------------------------------3--------------------------------|
     LA           DO           DO           SOL


e|---------------------------------------------------------------------------|
B|---------------------------------------------------------------------------|
G|--------------------5---5--------5---5--------7---7------------------------|
D|-------7---7------5---5--------5---5--------7---7--------------------------|
A|-----7---7------3------------3------------5--------------------------------|
E|---5-----------------------------------------------------------------------|
     LA           DO           DO           RE

No más ...


VERSO [02:33]:

A la mierda ...


PUENTE [02:45]:

Que en asuntos ...

ESTRIBILLO [02:58]

Y volveré ...

INTRO [03:11]

FOLK INSTRUMENTAL [03:24]

SOLO [04:26]


VERSO [04:56]:

e|-----------------------------|---------------------------------------------|
B|-----------------------------|---------------------------------------------|
G|---------5-----5-------------|---------5-----5-----7-----------------------|
D|---7-----5-----5-----5-------|---7-----5-----5-----7-----------------------|
A|---7-----3-xxx-3-xxx-5-------|---7-----3-xxx-3-xxx-5-----------------------|
E|---5-xxx-------------3-xxx---|---5-xxx-------------------------------------|
     LA    DO    DO    SOL         LA    DO    DO    RE

Y cuando ...


PUENTE [05:27]:

Cuanto me ...


ESTRIBILLO [05:40]:

Y volveré ...


RITMO FINAL [06:19]:

e|-------------------------------------|
B|-------------------------------------|
G|-------------------5-----------------|
D|---7-------3-------5-------5---------|
A|---7-------3-x x x-3-x x x-5---------|
E|---5-x x x-1---------------3-x x x---|
     LA      FA      DO      SOL      



Dedico este tab a todos los amantes de las seis cuerdas que hacen 
tabulados para internet, y a Silvia, mi novia, que me acompaña a todos 
los conciertos y me anima a componer nuevas canciones (¡ésta también la 
tocaremos juntos!).
Disfrutad con un volumen brutal!

Javier Jiménez Blanco.
Composición de José Andrëa / Txus di Fellatio
259 vistas
    • ½ Tono
    • A
    • Bb
    • B
    • C
    • Db
    • D
    • Eb
    • E
    • F
    • F#
    • G
    • Ab
  • Agregar a la lista

    0 comentarios

    Ver todos los comentarios

    ¿Lograste tocar?

    0 Tocaron 0 Aún no

    ¡Graba un video tocando El Que Quiera Entender y envíanoslo!

    00:00 / 00:00
    Outros vídeos desta música
    Repetir Calidad Automático
    Outros vídeos desta música
    00:00 / 00:00
    Automático
    OK