Cifra Club

Fiesta Pagana

Mägo De Oz

Tablatura: Principal (guitarra)
tono: B
Fiesta Pagana - Mago de Oz
Violino ou flauta

Ouça a música para pegar o tempo certo. Quando a velocidade ficar mais rápida e se você não consegue
ficar no tempo certo, troque o E|-7- por B|-12- e o E|-5- por B|-10-, mas fica melhor fazer só na
corda E| mesmo. Não faça nada em palheta alternada toque apenas de cima pra baixo.
O número de palhetadas não está 100 % correto, mas é só escutar a música para pegar.

Intro

E|7-----14--12--10--14--12--10------7-----14--12--10--14--12--10
B|---------------------------------------------------------------------------
G|---------------------------------------------------------------------------
D|---------------------------------------------------------------------------
A|---------------------------------------------------------------------------
E|----------------------------------------------------------------------------

E|5-----12--10--9--12--10--9------5-----12--10--9--12--10--9-------
B|-----------------------------------------------------------------
G|-----------------------------------------------------------------
D|-----------------------------------------------------------------
A|-----------------------------------------------------------------
E|-----------------------------------------------------------------

Riff 1

E|7--9-10--12--10--9--10--9h10--9--7--5-----------------------------
B|------------------------------------------------------------------
G|------------------------------------------------------------------
D|------------------------------------------------------------------
A|------------------------------------------------------------------
E|------------------------------------------------------------------

Riff 2

E|-15-15-15-12-10-9-7-----14-14-14-12-10-9-7-----------------------
B|-----------------------------------------------------------------
G|-----------------------------------------------------------------
D|-----------------------------------------------------------------
A|-----------------------------------------------------------------
E|-----------------------------------------------------------------

E|7--9--10--12-12-10-10-9-9-7-7------------------------------------
B|-----------------------------------------------------------------
G|-----------------------------------------------------------------
D|-----------------------------------------------------------------
A|-----------------------------------------------------------------
E|-----------------------------------------------------------------

Riff 3

E|7-7-7-7-14-14-12-12-10-10-9-9---------------------------------------
B|--------------------------------------------------------------------
G|--------------------------------------------------------------------
D|--------------------------------------------------------------------
A|--------------------------------------------------------------------
E|--------------------------------------------------------------------

Então fica assim

Intro 6X
Riff 1 1X


Cuando despiertes un día
Y sientas que no puedas más,
Que en el nombre del de arriba
Tu vida van a manejar

Si sientes que el miedo se pega a tu piel            
Por ser comunero y justicia querer                         Riff 2 aos 1:14 min 1X
Si te rindes hermano, por ti nunca pensarás

Riff 3 aos 1:21 min 3X

Cuando vayan a pedirte
Dos diezmos a fin de mes
Y la Santa Inquisición
Te "invite" a confesar

Por eso amigo tú alza la voz,
Di que nunca pediste opinión                                    Riff 2 aos 1:13 min 1X
Y si es verdad que existe un Dios
Que trabaje de sol a sol

Ponte en pie
Alza el puño y ven
A la fiesta pagana
En la hoguera hay de beber
De la misma condición
No es el pueblo ni un señor,
Ellos tienen el clero
Y nosotros nuestro sudor                                           Intro aos 2:04 min 2X

Riff 1 aos 2:18 min 1X

Si no hay pan para los tuyos
y ves muy gordo al abad,
si su virgen viste de oro,
desnúdala

Cómo van a silenciar                                                   Riff 2 aos 2:30 1X
al jilguero o al canario
si no hay cárcel ni tumba
para el canto libertario


Ponte en pie
Alza el puño y ven
A la fiesta pagana
En la hoguera hay de beber
De la misma condición
No es el pueblo ni un señor,
Ellos tienen el clero
Y nosotros nuestro sudor

Riff 3 aos 2:51 min 4X

Solo de guitarra

Riff 2 aos 3:36 min 2X

Ponte en pie
Alza el puño y ven
A la fiesta pagana
En la hoguera hay de beber
De la misma condición
No es el pueblo ni un señor,                Intro aos 4:05(só com a parte do E|7) 4X
Ellos tienen el clero                              Intro aos 4:19(agora completa) 4x
Y nosotros nuestro sudor

Riff 1aos 4:47 (mas acabando em E|7) 3X 

Transcrita por Lair Raupp

lokko_lair@hotmail.com
Composição de Txus
Colaboración y revision:
  • Lair Junior
13.781 reproducciones
    • ½ Tono
    • A
    • Bb
    • B
    • C
    • Db
    • D
    • Eb
    • E
    • F
    • F#
    • G
    • Ab
  • Adicionar à lista

    0 comentarios

    Ver todos os comentários

    ¿Conseguiste tocar?

    3 Tocaram 1 Ainda não

    Grave um vídeo tocando Fiesta Pagana e nos envie!

    00:00 / 00:00
    outros vídeos desta música
    repetir qualidade Automático
    Outros vídeos desta música
    00:00 / 00:00
    Automático
    OK