Cifra Club

Hoy Toca ser Feliz

Mägo De Oz

Cifrado: Principal (guitarra y guitarra eléctrica)
tono: G
(intro)
           G        Bm          C      Em    -    D
E|-----------/7-8-10~-----10-12~-10-------10~-|
B|-----7-8~-----------/12-----------1210h12----
G|-7/9----------------------------------------|
D|--------------------------------------------|
A|--------------------------------------------|
E|--------------------------------------------|

             G          Bm      C   D    G
E|-------------------------------10~------|
B|-/12-10-------------12~--10--------7-8~-|
G|--------12~-11-9------------12----------|
D|-----------------12---------------------|
A|----------------------------------------|
E|----------------------------------------|

           G        Bm          C      Em    -    D
E|-----------/7-8-10~-----10-12~-10-------10~-|
B|-----7-8~-----------/12-----------10h12-----|
G|-7/9----------------------------------------|
D|--------------------------------------------|
A|--------------------------------------------|
E|--------------------------------------------|

             G          Bm      C   D
E|--------------------------------------|
B|-/12-10-------------12~--10----10-----|
G|--------12~-11-9------------12----11~-|
D|-----------------12-------------------|
A|--------------------------------------|
E|--------------------------------------|

     G
E|------------------------------------|
B|-8-7-----8-7-----8-7-----8-7-----8~-|
G|-----9-7-----9-7-----9-7-----9-7----|
D|------------------------------------|
A|------------------------------------|
E|------------------------------------|

            G
Cuando un sueño se te muera
            Bm
o entre en coma una ilusión,
          C                       Em  D
no lo entierres ni lo llores, resucítalo.

     G
Y jamás des por perdida
      Bm
la partida, cree en ti,
           C                      D
y aunque duelan, las heridas curarán.

        Em       C         Em
Hoy el día ha venido a buscarte
  Am        C       G          D
y la vida huele a besos de jazmín,
     Em         C       Em
la mañana esta recién bañada,
   Am           C          G         D
el Sol la ha traído a invitarte a vivir.

    G       Bm
Y verás que tú puedes volar,
C                   D
y que todo lo consigues.
    G       Bm
Y verás que no existe el dolor,
 C                 D
hoy te toca ser feliz.

         G
Si las lágrimas te nublan
      Bm
la vista y el corazón,
         C
haz un trasvase de agua
            Em - D
al miedo, escúpelo.

       G
Y si crees que en el olvido
       Bm
se anestesia un mal de amor,
         C
no hay peor remedio
           D
que la soledad.

       Em           C       Em
Deja entrar en tu alma una brisa
    Am          C        G        D
que avente las dudas y alivie tu mal.
        Em       C       Em
Que la pena se muera de risa,
   Am             C
cuando un sueño muere
           G            D
es porque se ha hecho real.

    G       Bm
Y verás que tú puedes volar,
C                   D
y que todo lo consigues.
    G       Bm
Y verás que no existe el dolor,
 C                 D
hoy te toca ser feliz.

       G        Bm          C      Em        D
E|-------/7-8-10~-----10-12~-10-------10~-|
B|-7-8~-----------/12-----------12-10h12--|
G|----------------------------------------|
D|----------------------------------------|
A|----------------------------------------|
E|----------------------------------------|

             G          Bm      C   D
E|--------------------------------------|
B|-/12-10-------------12~--10----10-----|
G|--------12~-11-9------------12----11~-|
D|-----------------12-------------------|
A|--------------------------------------|
E|--------------------------------------|

(solo de violino)
     G                Em                D
E|---------------7--12-12-10--------------------|
B|-8-7-----8-7-8-------------12-10-12-10--------|
G|-----9-7-------------------------------11-11~-|
D|----------------------------------------------|
A|----------------------------------------------|
E|----------------------------------------------|

                          Em                             D
E|----10------------------------|----12-12-10--------------------|
B|-10----12-12-10----10---------|-12----------12-10-12-10--------|
G|----------------12----12-9-9~-|-------------------------11-11~-|
D|------------------------------|--------------------------------|
A|------------------------------|--------------------------------|
E|------------------------------|--------------------------------|

                          Em           Am                G
E|----10------------------------|----17-17-15--------------------|
B|-10----12-12-10----10---------|-17----------17-15-17-15--------|
G|----------------12----12-9-9~-|-------------------------16-16~-|
D|------------------------------|--------------------------------|
A|------------------------------|--------------------------------|
E|------------------------------|--------------------------------|

                          Am                               G
E|----15--------------------------|----17-17-15--------------------|
B|-------17-17-15----15-----------|-17----------17-15-17-15--------|
G|-16-------------17----17-14-14~-|-------------------------16-16~-|
D|--------------------------------|--------------------------------|
A|--------------------------------|--------------------------------|
E|--------------------------------|--------------------------------|

                          Am        D
E|----15--------------------|
B|-------17-17-15----15-----|
G|-16-------------17----14~-|
D|--------------------------|
A|--------------------------|
E|--------------------------|

        G
Las estrellas en el cielo
      Bm
son solo migas de pan
         C
que nos dejan nuestros sueños
        Em - D
para encontrar
      G
el camino, y no perdernos
      Bm
hacia la Tierra de Oz,
 C                   D
donde habita la ilusión.

    G       Bm
Y verás que tú puedes volar,
C                   D
y que todo lo consigues.
    G       Bm
Y verás que no existe el dolor,
 C                 D
hoy te toca ser feliz.

    G       Bm
Y verás que tú puedes volar,
C                       D
y que tu cuerpo es el viento,
        G      Bm
porque hoy tú vas a sonreír,
 C                 D
hoy te toca ser feliz.

       G        Bm          C      Em        D
E|-------/7-8-10~-----10-12~-10-------10~-|
B|-7-8~-----------/12-----------12-10h12--|
G|----------------------------------------|
D|----------------------------------------|
A|----------------------------------------|
E|----------------------------------------|

             G          Bm      C   D
E|--------------------------------------|
B|-/12-10-------------12~--10----10-----|
G|--------12~-11-9------------12----11~-|
D|-----------------12-------------------|
A|--------------------------------------|
E|--------------------------------------|

     G
E|--------------------|
B|-8-7-----8-7-----8~-|
G|-----9-7-----9-7----|
D|--------------------|
A|--------------------|
E|--------------------|
Composición de Carlos Mohamed Prieto / Txus di Fellatio
Colaboración y revisión:
  • eduardo vargas
  • João Silva
1.695 vistas
    • ½ Tono
    • A
    • Bb
    • B
    • C
    • Db
    • D
    • Eb
    • E
    • F
    • F#
    • G
    • Ab
  • Agregar a la lista

    0 comentarios

    Ver todos los comentarios

    ¿Lograste tocar?

    3 Tocaron 0 Aún no

    ¡Graba un video tocando Hoy Toca ser Feliz y envíanoslo!

    00:00 / 00:00
    Outros vídeos desta música
    Repetir Calidad Automático
    Outros vídeos desta música
    00:00 / 00:00
    Automático
    OK