Cifra Club

La Insulina de la Barataria

Mägo De Oz

Tablatura: Principal (guitarra)
tono: D
En un Lugar... (Prólogo) 
Santo Grial 
La Leyenda de la Mancha 
Noche Toledana 
Molinos de Viento 
Dime con quien Andas 
Maritormes 
El Bálsamo de Fierabras 
El Pacto 
La Ínsula de Barataria 
El Templo del Adios 
Requiem 
Ancha es Castilla (Epílogo)

--------------------------------------------------------------------------------
Intro
e|---------------------------------------------------------------------------|
B|---------------------------------------------------------------------------
G|---------------------------------------------------------------------------
D|---------------------------------------------------------------------------
A|---------------------------------------------------------------------------
E|-5-5-5-5-5-5-5-5-5-5-5-5-5-5-5---------------------------------------------|

|----------------------------------------------------------------------------| x4
|----------------------------------------------------------------------------
|---9-9--7-9-10-12-9---9-9-9-9-------7-9-7-----------------------------------
|-------------------------------------10------------10-----------------------
|----------------------------------------------------------------------------
|----------------------------------------------------------------------------

|----------------------------------------------------------------------------
|----------------------------------------------------------------------------
|---9-9--7-9-10-12-9----------7-9-7------------------------------------------
|---------------------------8-10----------10-7---10-7------------------------
|----------------------------------------------------------------------------
|----------------------------------------------------------------------------

(00:38)
|----------------------------------------------------------------------------
|----------------------------------------------------------------------------
|---9-7-9-7----------7-------------------------------------------------------
|--------------9-10-----10-7-------------------------------------------------
|----------------------------------------------------------------------------
|----------------------------------------------------------------------------

|----------------------------------------------------------------------------
|----------------------------------------------------------------------------
|---9-7-9-7-------7----------------------------------------------------------
|-------------9-10---10------------------------------------------------------
|----------------------------------------------------------------------------
|----------------------------------------------------------------------------

|----------------------------------------------------------------------------
|----------------------------------------------------------------------------
|---9-7-9-7----------7-------------------------------------------------------
|--------------9-10-----10-7-------------------------------------------------
|----------------------------------------------------------------------------
|----------------------------------------------------------------------------

|----------------------------------------------------------------------------
|----------------------------------------------------------------------------
|------9-7-------------------------------------------------------------------
|-----------10-9-7-------7-----7---------------------------------------------
|---------------------10-----10----------------------------------------------
|----------------------------------------------------------------------------
Composição de Mägo de Oz
Colaboración y revision:
  • Arthur Borges
309 reproducciones
    • ½ Tono
    • A
    • Bb
    • B
    • C
    • Db
    • D
    • Eb
    • E
    • F
    • F#
    • G
    • Ab
  • Adicionar à lista

    0 comentarios

    Ver todos os comentários

    ¿Conseguiste tocar?

    0 Tocaram 0 Ainda não

    Grave um vídeo tocando La Insulina de la Barataria e nos envie!

    00:00 / 00:00
    outros vídeos desta música
    repetir qualidade Automático
    Outros vídeos desta música
    00:00 / 00:00
    Automático
    OK