Cifra Club

Aprenda

Molinos de Viento

Mägo De Oz

Tablatura: Principal (guitarra)
tono: G
Intro = Base que acompanha solo de violino
E|-------------------------------------------------------------------
B|-------------------------------------------------------------------
G|-------------------------------------------------------------------
D|--7---9--9-9--9-9--9--9--7-9--9-9--9-9--9--9-7-5--5-5--5-5--5-5-5--
A|--5---7--7-7--7-7--7--7--5-7--7-7--7-7--7--7-5-3--3-3--3-3--3-3-3--
E|-------------------------------------------------------------------

E|-------------------------------------------------------------------
B|-------------------------------------------------------------------
G|-------------------------------------------------------------------
D|---7-7--7--7-7-----------------------------------------------------
A|---5-5--5--5-5-----------------------------------------------------
E|-------------------------------------------------------------------

Essa intro é tocada 2x

Parte I  (Se acaso tú no ves...)

E|-------------------------------------------------------------------
B|-------------------------------------------------------------------
G|-------------------------------------------------------------------
D|--9-------------7---9--------------9--7----5-5-5--5----7-7-7--7----
A|--7-------------5---7--------------7--5----3-3-3--3----5-5-5--5----
E|-------------------------------------------------------------------

Essa parte também toca-se 2x

(Amigo Sancho escuchame...)

E|---------------------------------------------------------------------------
B|---------------------------------------------------------------------------
G|---------------------------------------------------------------------------
D|-9--9-9--9-9-9--9-7-9--9-9--9-9-9--9-9-7--7-7--7-7--7-7-7--5-5-5--5--7-7-7-
A|-7--7-7--7-7-7--7-5-7--7-7--7-7-7--7-7-5--5-5--5-5--5-5-5--3-3-3--3--5-5-5-
E|---------------------------------------------------------------------------

Também 2x

A vezes siento a despertar  |
que el sueño es la realidad | - Essa parte não tem guitarra

Refrão

E|-------------------------------------------------------------------
B|-------------------------------------------------------------------
G|-------------------------------------------------------------------
D|--9--9-9-9--9--9-9-9--7--7-7--7-7)-5-5-----------------------------
A|--7--7-7-7--7--7-7-7--5--5-5--5-5--3-3-----------------------------
E|-------------------------------------------------------------------
2x

E|-------------------------------------------------------------------
B|-------------------------------------------------------------------
G|-------------------------------------------------------------------
D|---------------------7--7-7--7-7--5-5------------------------------
A|-5--5-5-5--5--5-5-5--5--5-5--5-5--3-3------------------------------
E|-3--3-3-3--3--3-3-3------------------------------------------------

Essa parte também repete, só que tem um "solinho" no final do refrão.

Repete Tudo

Antes do solo
E|-------------------------------------------------------------------
B|-------------------------------------------------------------------
G|-------------------------------------------------------------------
D|---------------9-9-9-9-7-9--9-9-9-9-9-7-5--5-5-5-5-5---7-5-5---7-7-
A|-5-5-5--5-5-5--7-7-7-7-5-7--7-7-7-7-7-5-3--3-3-3-3-3-5-5-3-3---5-5-
E|-3-3-3--3-3-3----------------------------------------3-------------

Obs: Escute a música para facilitar.
Composição de Txus
Colaboración y revision:
  • Gabriel Alves
5.356 reproducciones
    • ½ Tono
    • A
    • Bb
    • B
    • C
    • Db
    • D
    • Eb
    • E
    • F
    • F#
    • G
    • Ab
  • Adicionar à lista

    0 comentarios

    Ver todos os comentários

    ¿Conseguiste tocar?

    1 Tocaram 0 Ainda não

    Grave um vídeo tocando Molinos de Viento e nos envie!

    00:00 / 00:00
    outros vídeos desta música
    repetir qualidade Automático
    Outros vídeos desta música
    00:00 / 00:00
    Automático
    OK