Cifra Club

Aprenda

Molinos de Vientos

Mägo De Oz

Tablatura: Principal (guitarra)
tono: G
e|-15--15--15--15--15--15--17p15--15--14h15-15-
B|--------------------------------------------
G|--------------------------------------------
D|--------------------------------------------
A|--------------------------------------------
E|--------------------------------------------

   ----15--15--15--15--15--17p15--15--14h15--15-|
   17-------------------------------------------|
   ---------------------------------------------|
   ---------------------------------------------|
   ---------------------------------------------|
   ---------------------------------------------|

e|-----14--14--14--14--14--17p14--14-12h14-14-
B|-15----------------------------------------
G|-------------------------------------------
D|-------------------------------------------
A|-------------------------------------------
E|-------------------------------------------

  |------------12-15----------14-17-|-> La 2ª ->|--15--|
  |--13-13-13--------15-15-15-------|    vez    |------|
  |---------------------------------|  termina  |------|
  |---------------------------------|           |------|
  |---------------------------------|           |------|
  |---------------------------------|x2         |------|

e|-----------|---------|--------------|----------|---------|
B|----------|---------|--------------|----------|---------|
G|-7-9--9-7-|-------5-|-------7--7-9-|-7-9--9-7-|-------5-|
D|-7-9--9-7-|-------5-|-------7--7-9-|-7-9--9-7-|-------5-|
A |-5-7--7-5-|-3-3-3-3-|-5-5-5-5--5-7-|-5-7--7-5-|-3-3-3-3-|
E|----------|---------|--------------|----------|---------|

  |--------------|
  |--------------|
  |-------7--7/9-|
  |-------7--7/9-|
  |-5-5-5-5--5/7-|
  |--------------|

e|---------------------|---------------------|---------------|
B|--------------------|---------------------|---------------|
G|----------------7/9-|-----------------9/7-|-------------7-|
D|----------------7/9-|-----------------9/7-|-------------7-|
A |--7-7--7-7--7-7-5/7-|--7-7--7-7--7-7--7/5-|-5-5--5-5--5-5-|
E|--------------------|---------------------|---------------|

   ---------| |--------------|
   ---------| |--------------|  ----> Na segunda vez não se repete essa parte
   -------5-| |-------"7-7"-|            
   -------5-| |-------"7-7"-|
   -3-3-3-3-| |-"5-5-5-5-5"-|
   ---------| |--------------|x2

e|------------------------------------|------|
B|-8-5-8-5-8-5--7h8h10-7--5h7h8-5--8-|-"5"-|   
G|----------------------7------------|------|    
D|-----------------------------------|------|
A|-----------------------------------|------|
E|-----------------------------------|------|x2

  |----------------------7h8h10------------------|
  |-12-8--12-8--12-8--12--------10----8h10h12--8-|
  |--------------------------------11------------|
  |----------------------------------------------|
  |----------------------------------------------|
  |----------------------------------------------|

   ----------|->|---|
   -"10-12"-|   |---|
   ----------|  |-7-|
   ----------|  |---|
   ----------|  |---|
   ----------|x2|---|

e|--------------------------------------------|
B|--------------------------------------------|
G|-9-9--9x--9-9-9-9x----7-7-7--7x-----5--5x---|
D|-9-9--9x--9-9-9-9x----7-7-7--7x-----5--5x---|
A|-7-7--7x--7-7-7-7x----5-5-5--5x-----3--3x---|
E|--------------------------------------------|x2

 |---------------------------------------------
 |---------------------------------------------
 |---------------------7x-7-7-7x----5-5-5-5-5--
 |-5-5--5x--5-5-5-5-5--7x-7-7-7x----5-5-5-5-5--
 |-5-5--5x--5-5-5-5-5--5x-5-5-5x----3-3-3-3-3--
 |-3-3--3x--3-3-3-3-3--------------------------

  ------------------------|
  ------------------------|
  -----------------------7|
  5x-5-5--5x--5-5-5-5-5--7|
  5x-5-5--5x--5-5-5-5-5--5|
  3x-3-3--3x--3-3-3-3-3---|

e|------------------------------------------------------|
B|-----------------------------------------------------|
G|-------9-7-5---------------------------------------4-|
D|-5-7-9-------9-7-5-------------5--4-4-4-4---4-4-4--4-|
A|-------------------9-7-5-------5--4-4-4-4---4-4-4--2-|
E|-------------------------9-7-5-2--2-2-2-2---2-2-2----|

e|----------------------| |---|  |-----| |---|  |------| |---|
B|---------------------| |---|  |-----| |---|  |------| |---|
G|---------------------| |-9-|  |-7-9-| |---|  |-7--5-| |-5-|
D|-4---4-4-4-4---4-4-4-| |-9-|  |-7-9-| |---|  |-7--5-| |-5-|
A|-4---4-4-4-4---4-4-4-| |-7-|  |-5-7-| |-7-|  |-5--3-| |-3-|
E|-2---2-2-2-2---2-2-2-| |---|x6|-----| |---|x6|------| |---|x6

  |-----------------|------------------------------|
  |-----------------|------------------------------|
  |-----7-5--5--7-7-|-9--7-9---7-5--7-5-5---7-7--9-|
  |--5--7-5--5--7-7-|-9--7-9---7-5--7-5-5---7-7--9-|
  |--5--5-3--3--5-5-|-7--5-7---5-3--5-3-3---5-5--7-|
  |--3--------------|------------------------------|

   -------------------|
   -------------------|
   -9---7--5-5--7-7---|
   -9---7--5-5--7-7---|
   -7---5--3-3--5-5---|
   -------------------|

e|--7-7-7-7--------------------|-7-7-7-7-5------------|
B|----------10-8-7-8--10-8-7---|------------8-7-8-7-~~|
G|---------------------------9-|--------------------9-|
D|-----------------------------|----------------------|
A|-----------------------------|----------------------|
E|-----------------------------|----------------------|

  ---7-7-7-7--------------------|----------------------|
  ----------10-8-7-8--10-8-7----|-----7-8h10p8p7---8---|
  ---------------------------9--|-7h9------------9---9-|
  ------------------------------|----------------------|
  ------------------------------|----------------------|
  ------------------------------|----------------------|

e|------------------------------------|------|->Repetimos todo
B|-8-5-8-5-8-5--7h8h10-7--5h7h8-5--8-|-"5"-|   excepto las
G|----------------------7------------|------|    comillas
D|-----------------------------------|------|
A|-----------------------------------|------|
E|-----------------------------------|------|x2
                                                  _
                                                   |
  |----------------------7h8h10------------------| |
  |-12-8--12-8--12-8--12--------10----8h10h12--8-| |
  |--------------------------------11------------| |
  |----------------------------------------------| |  
  |----------------------------------------------| |  
  |----------------------------------------------| |
                                                  _|

e|--------------------------------------------|
B|--------------------------------------------|
G|-9-9--9x--9-9-9-9x----7-7-7--7x-----5--5x---|
D|-9-9--9x--9-9-9-9x----7-7-7--7x-----5--5x---|
A|-7-7--7x--7-7-7-7x----5-5-5--5x-----3--3x---|
E|--------------------------------------------|x2

e|------------------------------------------------------|
B|-----------------------------------------------------|
G|-------9-7-5---------------------------------------4-|
D|-5-7-9-------9-7-5-------------5--4-4-4-4---4-4-4--4-|
A|-------------------9-7-5-------5--4-4-4-4---4-4-4--2-|
E|-------------------------9-7-5-2--2-2-2-2---2-2-2----|

  |---------------------------------------------
  |---------------------------------------------
  |---------------------7x-7-7-7x----5-5-5-5-5--
  |-5-5--5x--5-5-5-5-5--7x-7-7-7x----5-5-5-5-5--
  |-5-5--5x--5-5-5-5-5--5x-5-5-5x----3-3-3-3-3--
  |-3-3--3x--3-3-3-3-3--------------------------

                           _
                            |
   ------------------------||
   ------------------------||
   -----------------------7|| 
   5x-5-5--5x--5-5-5-5-5--7|| 
   5x-5-5--5x--5-5-5-5-5--5|| 
   3x-3-3--3x--3-3-3-3-3---||
                           _|

Colaboración y revision:
  • joao filho
585 reproducciones
    • ½ Tono
    • A
    • Bb
    • B
    • C
    • Db
    • D
    • Eb
    • E
    • F
    • F#
    • G
    • Ab
  • Adicionar à lista

    0 comentarios

    Ver todos os comentários

    ¿Conseguiste tocar?

    0 Tocaram 0 Ainda não

    Grave um vídeo tocando Molinos de Vientos e nos envie!

    00:00 / 00:00
    outros vídeos desta música
    repetir qualidade Automático
    Outros vídeos desta música
    00:00 / 00:00
    Automático
    OK