Cifra Club

Aprenda

Mujer Amante

Mägo De Oz

Tablatura: Principal (guitarra)
tono: C
E|---0--------0-------0-------0------0-------0---5------------------------|
B|---5----5--------5-------5------5-------5------5------------------------|
G|---2------2----2---2---2---2--2---2---2---2----2------------------------|
D|---2-------------------------------------------2------------------------|
A|---0-------------------------------------------0------------------------|
E|------------------------------------------------------------------------|

E|-------4--------------------------------------------------------0-0-0---|
B|---5h6---6-5-3-6-5-3h5p3---5-3-----3-2-----2--------------------1-1-1---|
G|-------------------------6-----6-3-----3-2---3-2-0-3-2-0-3------2-2-2---|
D|----------------------------------------------------------------2-2-2---|
A|----------------------------------------------------------------0-0-0---|
E|----------------------------------------------------------------0-0-0---|

E|----------------------------------------------------------------------------|
B|-----5-6-5h6p5--------------------------------------------------------------|
G|-5-7-----------7p5-4--4-5-7-5-4-5-4h5p4/2-----------------------------------|
D|------------------------------------------5-3-2h3p2--2-3-5-3-2-0------------|
A|------------------------------------------------------------------3-2-3/5---|
E|--------------------------------------------------------------------------3-|

E|----------------7-8-10----------7-7---------|
B|----10-10-10-10--------8-8-8-10-----10-10~~-|
G|-9------------------------------------------|
D|--------------------------------------------|
A|--------------------------------------------|
E|--------------------------------------------|

E|-----5-7-8-7-5h7p5-----5--------------------|
B|---5---------------8-5---8-6-5--------------|
G|--------------------------------------------|
D|--------------------------------------------|
A|--------------------------------------------|
E|--------------------------------------------|

E|----------------7-8-10-------8-7------------|
B|----10-10-10-10--------8-8-8-----10~~-------|
G|-9------------------------------------------|
D|--------------------------------------------|
A|--------------------------------------------|
E|--------------------------------------------|

E|--------------------------------------------|
B|----5-6-5-8-6-5h6p5---5-----5---------------|
G|--7-----------------7---7-5---7-5-4-5-7-5---|
D|--------------------------------------------|
A|--------------------------------------------|
E|--------------------------------------------|

E|-12-12-13-12-15-13-12----------------10-10--------|
B|----------------------15-13-12-12-13-------13-13~-|
G|--------------------------------------------------|
D|--------------------------------------------------|
A|--------------------------------------------------|
E|--------------------------------------------------|

E|--12-10-8---8-7h8p8-------------------------|
B|--13-12-10----------10-8--------------------|
G|--------------------------------------------|
D|--------------------------------------------|
A|--------------------------------------------|
E|--------------------------------------------|

E|-12-12-13-12-15-13-12----------------------------|
B|----------------------15-13-12-12-10----10~~-----|
G|-------------------------------------12----------|
D|-------------------------------------------------|
A|-------------------------------------------------|
E|-------------------------------------------------|

E|--------------------------------------------|
B|--------------------------------------------|
G|------4-5-4-5-5/7---------------------------|
D|--5-7---------------------------------------|
A|--------------------------------------------|
E|--------------------------------------------|

Am                                     G
Siento el calor de toda tu piel en mi cuerpo otra vez
Am                F   C          G
Estrella fugaz enciende mi ser, misteriosa mujer

E|-5---5---5--5---5---5--5---5---5--5---5---5-----------------------------|
B|--6---6------6---6------5---5------5---5--------------------------------|
G|---5---5------5---5------5---5------5---5-------------------------------|
D|------------------------------------------------------------------------|
A|------------------------------------------------------------------------|
E|------------------------------------------------------------------------|
Con tu amor sensual cuanto me das

E|--7---7---7--10-----10-----10---12-------13-12-----13-12----------------|
B|---8---8-------10-----10--------13-13---------13------------------------|
G|----7---7--------10-----10------12----12--------12----------------------|
D|------------------------------------------------------------------------|
A|------------------------------------------------------------------------|
E|------------------------------------------------------------------------|
Haz que mi sueño sea una_________verdad

E|-5---5---5--5---5---5--5---5---5--5---5---5-----------------------------|
B|--6---6------6---6------5---5------5---5--------------------------------|
G|---5---5------5---5------5---5------5---5-------------------------------|
D|------------------------------------------------------------------------|
A|------------------------------------------------------------------------|
E|------------------------------------------------------------------------|
Dame tu alma hoy, haz el ritual

E|--7---7---7--10-----10-----10-------------------------------------------|
B|---8---8-------10-----10---------7--7/9-9~-9~---------------------------|
G|----7---7--------10-----10----------------------------------------------|
D|---------------------------------7--7/9-9~-9~---------------------------|
A|------------------------------------------------------------------------|
E|------------------------------------------------------------------------|
Llévame al mundo donde pueda soñar

Am     C                G          Am
Uuuhh Debo saber si en verdad en algún lado estas
              C    G Em      Am (riff 1)
Voy a buscar una señal, una canción
Am   C                  G           Am
Uuuhh Debo saber si en verdad en algún lado estas
               C       G Em     Am G Am
Go el amor que tu me das me ayudara

E|----------------7-8-10----------7-7---------|
B|----10-10-10-10--------8-8-8-10-----10-10~~-|
G|-9------------------------------------------|
D|--------------------------------------------|
A|--------------------------------------------|
E|--------------------------------------------|

E|--------------------------------------------|
B|--------------------------------------------|
G|---4-5-5/7-5-7-7/9--------------------------|
D|-7------------------------------------------|
A|--------------------------------------------|
E|--------------------------------------------|
        Am             G
E|----------------7-8-10-------8-7------------|
B|----10-10-10-10--------8-8-8-----10~~-------|
G|-9------------------------------------------|
D|--------------------------------------------|
A|--------------------------------------------|
E|--------------------------------------------|

E|--7-8----7-8-10-10/12-----------------------|
B|------10--------------10--------------------|
G|--------------------------------------------|
D|--------------------------------------------|
A|--------------------------------------------|
E|--------------------------------------------|

E|-12-12-13-12-15-13-12----------------10-10--------|
B|----------------------15-13-12-12-13-------13-13~-|
G|--------------------------------------------------|
D|--------------------------------------------------|
A|--------------------------------------------------|
E|--------------------------------------------------|

E|--------------------------------------------|
B|--6-8-8p5-----------------------------------|
G|----------5-7-7p5---------------------------|
D|--------------------------------------------|
A|--------------------------------------------|
E|--------------------------------------------|

E|-12-12-13-12-15-13-12----------------------------|
B|----------------------15-13-12-12-10----10~~-----|
G|-------------------------------------12----------|
D|-------------------------------------------------|
A|-------------------------------------------------|
E|-------------------------------------------------|

Am                                     G
Al amanecer tu imagen se va, misteriosa mujer
Am                F   C          G
Dejaste en mi lujuria total, hermosa y sensual

E|-5---5---5--5---5---5--5---5---5--5---5---5-----------------------------|
B|--6---6------6---6------5---5------5---5--------------------------------|
G|---5---5------5---5------5---5------5---5-------------------------------|
D|------------------------------------------------------------------------|
A|------------------------------------------------------------------------|
E|------------------------------------------------------------------------|
Corazón sin dios, dame un lugar

E|--7---7---7--10-----10-----10-------------------------------------------|
B|---8---8-------10-----10---------7--7/9-9~-9~---------------------------|
G|----7---7--------10-----10----------------------------------------------|
D|---------------------------------7--7/9-9~-9~---------------------------|
A|------------------------------------------------------------------------|
E|------------------------------------------------------------------------|
En ese mundo tibio, casi irreal

E|-5---5---5--5---5---5--5---5---5--5---5---5-----------------------------|
B|--6---6------6---6------5---5------5---5--------------------------------|
G|---5---5------5---5------5---5------5---5-------------------------------|
D|------------------------------------------------------------------------|
A|------------------------------------------------------------------------|
E|------------------------------------------------------------------------|
Deberé buscar una_________señal

E|--7---7---7--10-----10-----10-------------------------------------------|
B|---8---8-------10-----10---------7--7/9-9~-9~---------------------------|
G|----7---7--------10-----10----------------------------------------------|
D|---------------------------------7--7/9-9~-9~---------------------------|
A|------------------------------------------------------------------------|
E|------------------------------------------------------------------------|
En aquel camino por el que vas

Am     C                G          Am
Uuuhh Debo saber si en verdad en algún lado estas
              C    G Em      Am (riff 1)
Voy a buscar una señal, una canción
Am   C                  G           Am
Uuuhh Debo saber si en verdad en algún lado estas
               C       G Em     Am G Am
Go el amor que tu me das me ayudara

E|-----5-7-8--8p7----7----------------------------------------------------|
B|---5------------10---8--6-8-6p5---5-------------------------------------|
G|--------------------------------7-----------------5/7----7/9------------|
D|----------------------------------------------7-9-----10-----7----------|
A|--------------------------------------------7---------------------------|
E|--------------------------------------5-7-8-----------------------------|

esta parte es ``Peluda´´ practiquela, por que yo ya la saque y asi va:

E|------------------------------------------------------------------------|
B|------------------------------------------------------------------------|
G|---------7h9p7---------7------------------------------------------------|
D|--7-9-10-------10-9-10---10p9-7h9p7-5-7-7-5h7p5-------------------------|
A|------------------------------------------------8-7---------------------|
E|----------------------------------------------------8-7-5---------------|

E|--10-12-13-17-----------10-12-13--10-12-13-12h13p12--10-12-10-----------|
B|--10-------17--10-12-13---------------------------------------13-12-13--|
G|--10-------17-----------------------------------------------------------|
D|------------------------------------------------------------------------|
A|------------------------------------------------------------------------|
E|------------------------------------------------------------------------|

E|-10-------------------------------------10-8h10p8-7-10-8h10p8-7-10-7-8--|
B|----13~---12h13p12-10-12-10h12p10-8-10----------------------------------|
G|------------------------------------------------------------------------|
D|------------------------------------------------------------------------|
A|------------------------------------------------------------------------|
E|------------------------------------------------------------------------|

E|-10-7-8-10-7-8-10-12-8-10-12-12/15------10-8--10-7--8-7-----------------|
B|-----------------------------------(12)-12-10-12-9------10-9------------|
G|------------------------------------------------------------------------|
D|-----------------------------------------------------------------5-5/7--|
A|-------------------------------------------------------------7-8--------|
E|------------------------------------------------------------------------|

F                                 Am
Tu presencia marcó en mi vida el amor, lo sé
G              Dm               C (riff 2)
Es difícil pensar en vivir ya sin vos
F                          Am
Corazón sin dios, dame un lugar
       G     Dm Em
En ese mundo tibio, casi irreal

Am     C                G          Am
Uuuhh Debo saber si en verdad en algún lado estas
              C    G Em      Am (riff 1)
Voy a buscar una señal, una canción
Am   C                  G           Am
Uuuhh Debo saber si en verdad en algún lado estas
               C       G Em     Am G Am
Go el amor que tu me das me ayudara

E|----------------7-8-10----------7-7---------|
B|----10-10-10-10--------8-8-8-10-----10-10~~-|
G|-9------------------------------------------|
D|--------------------------------------------|
A|--------------------------------------------|
E|--------------------------------------------|

E|--------------------------------------------|
B|--------------------------------------------|
G|--------------------------------------------|
D|-------2-3-5-3-2h3p2---2-3-2----------------|
A|-0-2-3---------------5----------------------|
E|--------------------------------------------|

E|----------------7-8-10-------8-7------------|
B|----10-10-10-10--------8-8-8-----10~~-------|
G|-9------------------------------------------|
D|--------------------------------------------|
A|--------------------------------------------|
E|--------------------------------------------|

ohhhhhh no no nooooooooo!!!!

E|-12-12-13-12-15-13-12----------------10-10--------|
B|----------------------15-13-12-12-13-------13-13~-|
G|--------------------------------------------------|
D|--------------------------------------------------|
A|--------------------------------------------------|
E|--------------------------------------------------|

E|-----5-7-8-7-5h7p5-----5-------------------------|
B|---5---------------8-5---8-6-5-------------------|
G|-------------------------------------------------|
D|-------------------------------------------------|
A|-------------------------------------------------|
E|-------------------------------------------------|

E|-12-12-13-12-15-13-12----------------------------|
B|----------------------15-13-12-12-10----10~~-----|
G|-------------------------------------12----------|
D|-------------------------------------------------|
A|-------------------------------------------------|
E|-------------------------------------------------|

ohhhhhhh ohh uuu

E|----------5-7-8-5h7p5------------------------------|
B|--------5-------------8-6-5-8-6-5---5--------------|
G|----4-5---------------------------7----------------|
D|--7------------------------------------------------|
A|--------------------------------------0------------|
E|---------------------------------------------------|

 (riff 1)           (riff 2)
E|-------------|    e|--12--10----|
B|-------------|    B|--13--------|
G|-------------|    G|--12--------|
D|-------------|    D|------------|
A|-0-2-3-2-0---|    A|------------|
E|-------------|    E|------------|

quiero aclarar que la tablatura no es mia pero no
recurdo de donde la saque
asi que espero que la disfruten
Composição de Walter Giardino
Colaboración y revision:
  • sergio gamboa
637 reproducciones
    • ½ Tono
    • A
    • Bb
    • B
    • C
    • Db
    • D
    • Eb
    • E
    • F
    • F#
    • G
    • Ab
  • Adicionar à lista

    0 comentarios

    Ver todos os comentários

    ¿Conseguiste tocar?

    0 Tocaram 0 Ainda não

    Grave um vídeo tocando Mujer Amante e nos envie!

    00:00 / 00:00
    outros vídeos desta música
    repetir qualidade Automático
    Outros vídeos desta música
    00:00 / 00:00
    Automático
    OK