Cifra Club

Aprenda

Noche Toledana

Mägo De Oz

Tablatura: Principal (guitarra)
tono: G
E||-----------------------|-----------------------|----------------------|
B||--8--8----12------8----|--7--7----10------7----|--5--5----8------5----|
G||--9--9----12------9----|--7--7----11------7----|--5--5----9------5----|
D||-----------------------|-----------------------|----------------------|
A||-----------------------|-----------------------|----------------------|
E||-----------------------|-----------------------|----------------------|

E||---------------------------||---------------------------|----------------------|
B||--7--7-8-7--7-8-7--5--4----||---8--8----12------13--12--|--10--7---------------|
G||--8--8-9-8--8-9-8--5--4----||*--9--9----12------14--12--|--11--7----7----------|
D||---------------------------||*--------------------------|-----------9----------|
A||---------------------------||---------------------------|----------------------|
E||---------------------------||---------------------------|----------------------|

E||----------------------------|------------------------||-----------------------|
B||--10--10----13------15--13--|--12--10----------------||--8--8----12------8----|
G||--11--11----14------16--14--|--12--11----9----------*||--9--9----12------9----|
D||----------------------------|-----------------------*||-----------------------|
A||----------------------------|------------------------||-----------------------|
E||----------------------------|------------------------||-----------------------|

E||-----------------------|----------------------|---------------------------|
B||--7--7----10------7----|--5--5----8------5----|--7--7-8-7--7-8-7--5--4----|
G||--7--7----11------7----|--5--5----9------5----|--8--8-9-8--8-9-8--5--4----|
D||-----------------------|----------------------|---------------------------|
A||-----------------------|----------------------|---------------------------|
E||-----------------------|----------------------|---------------------------|

E||--------------------------|----------------------|----------------------------|
B||--8--8----12------13--12--|--10--7---------------|--10--10----13------15--13--|
G||--9--9----12------14--12--|--11--7----7----------|--11--11----14------16--14--|
D||--------------------------|-----------9----------|----------------------------|
A||--------------------------|----------------------|----------------------------|
E||--------------------------|----------------------|----------------------------|

E||-----------------------|--------------------------|----------------------|
B||--12--10---------------|--8--8----12------13--12--|--10--7---------------|
G||--12--11----9----------|--9--9----12------14--12--|--11--7----7----------|
D||-----------------------|--------------------------|-----------9----------|
A||-----------------------|--------------------------|----------------------|
E||-----------------------|--------------------------|----------------------|

E||----------------------------|----------------------|--------------------|
B||--10--10----13------15--13--|--12--------10--------|--8--------7--------|
G||--11--11----14------16--14--|--12--------11--------|--9--------7--------|
D||----------------------------|----------------------|--------------------|
A||----------------------------|----------------------|--------------------|
E||----------------------------|----------------------|--------------------|

E||-------------------|------------------||
B||----------8--------|------------------||
G||----------9--------|------------------||
D||-------------------|------------------||
A||-------------------|------------------||
E||-------------------|------------------||

E||-------------------|-----7------------||
B||----8-7--7---------|----8--8-7--------||
G||---9---------------|---9--------------||
D||--9----9-----------|--9--------9------||
A||-7-----------------|-7----------------||
E||-------------------|------------------||2X
Colaboración y revision:
  • Joel Caldas
  • Arthur Borges
250 reproducciones
    • ½ Tono
    • A
    • Bb
    • B
    • C
    • Db
    • D
    • Eb
    • E
    • F
    • F#
    • G
    • Ab
  • Adicionar à lista

    0 comentarios

    Ver todos os comentários

    ¿Conseguiste tocar?

    0 Tocaram 0 Ainda não

    Grave um vídeo tocando Noche Toledana e nos envie!

    00:00 / 00:00
    outros vídeos desta música
    repetir qualidade Automático
    Outros vídeos desta música
    00:00 / 00:00
    Automático
    OK