Cifra Club

Santa Campaña

Mägo De Oz

Cifrado: Principal (guitarra y guitarra eléctrica)
tono: Am
Intro / Riff:
                     x3
E|---------------------------------------------------------------------------|
B|---------------------|-----------------------------------------------------|
G|---------------------|---5---7---------------------------------------------|
D|---7-----------------|---5---7---------------------------------------------|
A|---7--------5--------|---3---5---------------------------------------------|
E|---5--5--7-----8--7--------------------------------------------------------|

                     x3
E|---------------------------------------------------------------------------|
B|---------------------|-----------------------------------------------------|
G|---------------------|---5-------------------------------------------------|
D|---7-----------------|---5---5---------------------------------------------|
A|---7--------5--------|---3---5---------------------------------------------|
E|---5--5--7-----8--7----------3---------------------------------------------|


Verso 1:

E|---------------------------------------------------------------------------|
B|---------------------------------------------------------------------------|
G|----------------------------5----------------------------------------------|
D|---7-------5---7------------5----5---7-7----------7------------------------|
A|---7-------5---7------------3----5---7-7----------7------------------------|
E|---5-------3---5-----------------3---5-5----------5------------------------|

     Cuando al atardecer,
     los últimos rayos del Sol
     jugueteaban a esconder
     las luces y el color
     del bosque del perder,

                             x2
E|-----------------------------|---------------------------------------------|
B|-----------------------------|---------------------------------------------|
G|-----------------------------|---5^---/9^---7------------------------------|
D|---3-----5-----7-----7| -----|-----------------9--10-----------------------|
A|---3-----5-----7-----7| -----|---------------------------------------------|
E|---1·····3·····5·····5| -----|---------------------------------------------|

     algo se empieza a mover,
     algo a lo lejos se ve.

Puente:
                             x2
E|-----------------------------|
B|-----------------------------|
G|-----------------------------|
D|---3-----5-----7-----7| -----|
A|---3-----5-----7-----7| -----|
E|---1·····3·····5·····5| -----|

     Portadores de luz.
     Rosas en un ataúd.


                             x2
E|-----------------------------|-----------|
B|-----------------------------|-----------|
G|------------------5----7-----|--9--------|
D|---3----5----7----5----7-----|--9--------|
A|---3----5----7----3----5-----|--7.....---|
E|---1----3----5---------------|-----------|

     Oh...


Verso 2:
La lluvia hacía del mar un rumor
y el dios de las sombras se instalaba.
la reina de la noche acudió,
su majestad La Luna, bien acompañada,
y una procesión de almas en pena.

Portadores de luz.
Rosas en un ataúd.

Verso 3:
Al frente dicen ver
a un vivo con una Cruz,
pues necesitan de él
para llevar la muerte
a quien les pueda ver.

No abras a nadie mujer,
no hasta el amanecer.

Verso 4:
Si los oyes llegar,
y tu alma quieres salvar,
un oráculo has de dibujar,
métete en él, reza,
y no escuches su voz.

La muerte te hará creer
que soy yo, 'Cielo, abreme



BUENO ESPERO QUE LES HAYA GUSTAC 

MANC  SALUC S PA' E S AEG OS(AS)
UN SALUC  MUY ESPECIAL A Dania Paulina
una amiga que me cae super
00:00 / 00:00
Otros videos de esta canción
Repetir
Otros videos de esta canción
Compositor no encontrado.
2 vistas
    • ½ Tono
    • Am
    • Bbm
    • Bm
    • Cm
    • C#m
    • Dm
    • Ebm
    • Em
    • Fm
    • F#m
    • Gm
    • G#m
  • Agregar a la lista

    0 comentarios

    Ver todos los comentarios

    ¿Lograste tocar?

    0 Tocaron 0 Aún no

    ¡Graba un video tocando Santa Campaña y envíanoslo!

    00:00 / 00:00
    OK