Cifra Club

Si Supieras

Mägo De Oz

Cifrado: Principal (guitarra y guitarra eléctrica)
tono: G
Introducción

G  -D -Am -Em 
G  -D -C -D -Em  (x2)

E|---------------------------------------------------|
B|---------------------------------------------------|
G|-------4---4-4---------------4-5-7(9)(7)-5-4-------|
D|---5-7---------7-5-4-------7-----------------7-5---|
A|---------------------7-5---------------------------|
E|---------------------------------------------------|

E|---------------------------------------------------|
B|---------------------------------------------------|
G|-------4-4-4(5)(4)-----------------------4-5-7-----|
D|---5-7-------------5-7-7/9-7---5-4-5-5/7-------7---|
A|---------------------------------------------------|
E|---------------------------------------------------|

E|--------7---7-7-----------------7-8-10(12)(10)-8-7------|
B|---8-10---------10-8-7-------10--------------------10-8-|
G|-----------------------9-7------------------------------|
D|--------------------------------------------------------|
A|--------------------------------------------------------|
E|--------------------------------------------------------|

E|--------7-7-7(8)(7)------7---------------7--------------|
B|---8-10-------------8-10---10---8-7-8-10---10-7---------|
G|------------------------------------------------7-9-----|
D|--------------------------------------------------------|
A|--------------------------------------------------------|
E|--------------------------------------------------------|


Em 
Hace tiempo que no sé de ti,

D                                 C 
hace tiempo que no sé muy bien quién pintó de soledad

G                            D 
las paredes de mi habitación.

Em                                       D 
Donde estás cielo donde estás, pues te busco entre mi ayer.

C                           G                  D 
Pinto cada amanecer con lágrimas sobre mi piel.

C                    Bm        Am        Em       D 
Duele más que tu frialdad la pena de no saber de ti.

C             Bm          Am               D 
Tengo sed de beber tu voz aunque esté muda de amor.




G                          Em                       D 
Si supieras las noches que robo al olvido pensando en ti.

C                       Am               G       Em   D 
Si supieras lo roto que me has dejado el corazón

G                           Em                 D 
y a pesar de que duele te juro que trato de estar sin ti,

Am               Em        D         Em   D    Em 
como el mar tus ojos eran donde naufragar.




Em                                     D 
Soledad dime donde están esos ojos que robé.

C                                 G                     D 
Guarda en ellos la verdad pues en ellos encontré mi mar.

Em                                D 
Soledad dime si es verdad que hay un sitio para mí,

C                           G                   D 
desde que ella me dejó mi condena tengo que cumplir.

   C                    Bm            Am         Em      D 
Y otra vez he vuelto a perder esa sonrisa al amanecer.

      C           Bm      Am               D 
Despertar oliendo su piel antes de hacer el amor.


G                          Em                       D 
Si supieras las noches que robo al olvido pensando en ti.

C                       Am               G       Em   D 
Si supieras lo roto que me has dejado el corazón

G                           Em                          D 
y a pesar de que duele te juro que trato de estar sin ti,

Am               Em        D         Em   D    Em 
como el mar tus ojos eran donde naufragar.



C                      D               Em          D        Am 
La piel que hoy habita en mí, está hecha de besos, está hecha de ti.

C       D            C                  D 
Tu pelo me recordó que existen sogas de amor.

Solo:

C -D -Bm -Em 
G  -D -Am -Em 
G  -D -C -D -Em 

(3:40)
E|---------------------------------------------------------|
B|---/12---12-12-12-----------------------12-12(13)(12)(13)|
G|------------------12/9-14/11------12h14------------------|
D|-----------------------------12--------------------------|
A|---------------------------------------------------------|
E|---------------------------------------------------------|

E|-------------------------------------------------|
B|---(12)-10----------------------------12-13-15---|
G|-----------12-11---9-11-12---11-12-14------------|
D|-------------------------------------------------|
A|-------------------------------------------------|
E|-------------------------------------------------|

E|--------7---7-7-----------------7-8-10(12)(10)-8-7------|
B|---8-10---------10-8-7-------10--------------------10-8-|
G|-----------------------9-7------------------------------|
D|--------------------------------------------------------|
A|--------------------------------------------------------|
E|--------------------------------------------------------|

E|--------7-7-7(8)(7)------7---------------7--------------|
B|---8-10-------------8-10---10---8-7-8-10---10-7---------|
G|------------------------------------------------7-9-----|
D|--------------------------------------------------------|
A|--------------------------------------------------------|
E|--------------------------------------------------------|


   Em                            D 
Esta carta llega a su fin, me despido, cuídate

  C                     D 
aunque te olvides de mí no te olvides de vivir.



G                          Em                       D 
Si supieras las noches que robo al olvido pensando en ti.

C                       Am               G       Em   D 
Si supieras lo roto que me has dejado el corazón

G                           Em                          D 
y a pesar de que duele te juro que trato de estar sin ti,

Am               Em        D         Em   D    Em 
como el mar tus ojos eran donde naufragar.



G                          Em                       D 
Si supieras las noches que robo al olvido pensando en ti.

C                       Am               G       Em   D 
Si supieras lo roto que me has dejado el corazón

G                           Em                          D 
y a pesar de que duele te juro que trato de estar sin ti.

(5:01)
E|--------------------------------------------------------|
B|---------12-12---12-12-------12-12-12-13/15-13-12-------|
G|---12-14---------------14-12----------------------14-12-|
D|--------------------------------------------------------|
A|--------------------------------------------------------|
E|--------------------------------------------------------|

E|--------------------------------------------------------|
B|---------------------------------------------------13-15|
G|---11-----------12------------------------12-14-16------|
D|-------12-14-16----16h14h12-12---12-14-16---------------|
A|--------------------------------------------------------|
E|--------------------------------------------------------|

E|---12-12-12/10-----12-12/15-14-12------15-14-12---------|
B|---------------13-----------------15------------15-13-12|
G|--------------------------------------------------------|
D|--------------------------------------------------------|
A|--------------------------------------------------------|
E|--------------------------------------------------------|

E|-------------------------------------------------------|
B|--------------12---13/15-13-12---12-13-10---10-10---10-|
G|---14---12-14------------------------------------------|
D|-------------------------------------------------------|
A|-------------------------------------------------------|
E|-------------------------------------------------------|

E|----------------------14-15-17---15-17-19(20)-|
B|---12-13---13-15-17---------------------------|
G|----------------------------------------------|
D|----------------------------------------------|
A|----------------------------------------------|
E|----------------------------------------------|


Am               Em              D                Em 
dónde estás, pues mi recuerdo se ha echado a llorar.
00:00 / 00:00
Otros videos de esta canción
Repetir
Otros videos de esta canción
Composición de Mägo de Oz / Txus
41 vistas
    • ½ Tono
    • A
    • Bb
    • B
    • C
    • Db
    • D
    • Eb
    • E
    • F
    • F#
    • G
    • Ab
  • Agregar a la lista

    0 comentarios

    Ver todos los comentarios

    ¿Lograste tocar?

    0 Tocaron 0 Aún no

    ¡Graba un video tocando Si Supieras y envíanoslo!

    00:00 / 00:00
    OK